PrimaNota.ru - самый крупный в мире бесплатный архив песенных текстов, аккордов, табулатур и нот


Shadows - Little B - бас-таба, видео

Регистрация Запомнить меня
Войти через:  Facebook Google Twitter Vk Yandex Mail.ru

Shadows - Little B - бас-таба, видео

Печатать
Просмотров: 88
Little "B"
The Shadows
Written by Brian Bennett; released on the album "Out Of The Shadows".

Intro:
G|------ ------ ------ ------|------ ------ ------ ------|
D|---------------------------|---------------------------|
A|---------------------------|---------------------------|
E|---------------------------|---------------------------|
  (drums)


G|------ ------ ------ ------|------ ------ ------ ------|
D|---------------------------|---------------------------|
A|---------------------------|---------------------------|
E|---------------------------|---------------------------|


Verse:
G|------ ------ ------ ------|------ ------ ------ ------|
D|---------------------------|---------------------------|
A|-------4------5------6-----|7------5------4------------|
E|5--------------------------|---------------------7-----|



G|------ ------ ------ ------|------ ------ ------ ------|
D|---------------------------|--------------5------------|
A|-------4------7------4-----|---------------------------|
E|5--------------------------|5--------------------------|



G|------ ------ ------ ------|------ ------ ------ ------|
D|-------4------7------4-----|---------------------------|
A|5------------------------5-|-------3-------------3-----|
E|---------------------------|--------------5------------|



G|------ ------ ------ ------|------ ------ ------ ------|
D|---------------------4---7\|-------5------4------------|
A|-------4------7------------|---------------------7-----|
E|5--------------------------|---------------------------|



G|------ ------ ------ ------|------ ------ ------ ------|
D|---------------------------|---------------------------|
A|5------5------6------6-----|---------------------------|
E|---------------------------|5------5------5------5-----|



G|------ ------ ------ ------|------ ------ ------ ------|
D|---------------------------|---------------------------|
A|5------5------6------6---6-|7--------------------------|
E|---------------------------|----5---------5------5-----|



G|------ ------ ------ ------|------ ------ ------ ------|
D|---------------------------|---------------------------|
A|5------5------6------6-----|7------7------9------9-----|
E|---------------------------|---------------------------|



G|------ ------ ------ ------|------ ------ ------ ------|
D|---------------------------|---------------------------|
A|---------------------5-----|7--------------------------|
E|7------7------7------------|----0---------0------------|


Verse:
G|------ ------ ------ ------|------ ------ ------ ------|
D|---------------------4---7-|----7--4-------------------|
A|-------4------7------------|--------------7------4-----|
E|5--------------------------|---------------------------|



G|------ ------ ------ ------|------ ------ ------ ------|
D|---------------------------|--------------5------------|
A|-------4------7------4-----|-------4-------------------|
E|5--------------------------|5--------------------------|



G|------ ------ ------ ------|------ ------ ------ ------|
D|---------------------------|---------------------------|
A|5------3-------------3-----|5------3-------------3-----|
E|--------------5------------|--------------5------------|



G|------ ------ ------ ------|------ ------ ------ ------|
D|---------------------4-----|7------5-------------5---7\|
A|-------4------7------------|--------------7------------|
E|5--------------------------|---------------------------|


Break (drum solo from 0:34 to 3:42)


Verse:
G|------ ------ ------ ------|------ ------ ------ ------|
D|---------------------------|---------------------------|
A|-------4------5------6-----|7------5------4------------|
E|5--------------------------|---------------------7-----|



G|------ ------ ------ ------|------ ------ ------ ------|
D|---------------------4-----|7------5------4------------|
A|-------4------7------------|---------------------7-----|
E|5--------------------------|---------------------------|



G|------ ------ ------ ------|------ ------ ------ ------|
D|---------------------------|---------------------------|
A|5------3-------------3-----|5------3-------------3-----|
E|--------------5------------|--------------5------------|



G|------ ------ ------ ------|------ ------ ------ ------|
D|---------------------4-----|7------5------4------------|
A|-------4------7------------|---------------------7-----|
E|5--------------------------|---------------------------|



G|------ ------ ------ ------|------ ------ ------ ------|
D|---------------------------|---------------------------|
A|5------5------6------6-----|7--------------------------|
E|---------------------------|----5---------5------5-----|



G|------ ------ ------ ------|------ ------ ------ ------|
D|---------------------------|---------------------------|
A|5------5------6------6-----|7--------------------------|
E|---------------------------|----5---------5------5-----|



G|------ ------ ------ ------|------ ------ ------ ------|
D|---------------------------|---------------------------|
A|5------5------6------6-----|7------7------9------9-----|
E|---------------------------|---------------------------|



G|------ ------ ------ ------|------ ------ ------ ------|
D|---------------------------|---------------------------|
A|-------------------------5-|7--------------------------|
E|7------7------7------7-----|----0---------0------------|


Verse:
G|------ ------ ------ ------|------ ------ ------ ------|
D|---------------------4-----|7------4-------------------|
A|-------4------7------------|--------------7------4-----|
E|5--------------------------|---------------------------|



G|------ ------ ------ ------|------ ------ ------ ------|
D|---------------------4-----|7------5------4------------|
A|-------4------7------------|---------------------7-----|
E|5--------------------------|---------------------------|



G|------ ------ ------ 4-----|------ 4----- ------ 4-----|
D|-------4------7------------|--------------7------------|
A|5--------------------------|5--------------------------|
E|---------------------------|---------------------------|



G|------ ------ ------ ------|------ ------ ------ ------|
D|---------------------4-----|7------4-------------5---7\|
A|-------4------7------------|------------------7--------|
E|5--------------------------|---------------------------|


Outro (drum solo from 4:10 to 4:48)


Ending at 4:48 (with about half of the original tempo):
G|------ ------ ------ ------|------ ------ ------ ------|
D|---------------------------|---------------------------|
A|-------4------5------6---7-|---------------------------|
E|5--------------------------|-----------5---------------|

Please e-mail me for any corrections, or write a comment.
Добавлено: 07.10.2013
Другие материалы по этой песне:

Страница создана 19.03.2012
http://primanota.ru/shadows/little-b-chords.htm
Привет, Гость.
Предлагаем пройти революционный курс по гитаре.
Подарок от PrimaNota.Ru, забирай!