PrimaNota.ru - самый крупный в мире бесплатный архив песенных текстов, аккордов, табулатур и нот


Shadows - In The Mood - таба, видео

Регистрация Запомнить меня
Войти через:  Facebook Google Twitter Vk Yandex Mail.ru

Shadows - In The Mood - таба, видео

Печатать
Просмотров: 220
* The Shadows : In the mood (Garland, Razaf)
  -------------------------

                       C       
E |------------------------0--|------------|
B |-----------------------1---|------------|
G |-----------2-3-4-5----0----|------------|
D |--5-4-5-6------------2-----|------------|
A |--------------------3------|------------|
E |---------------------------|------------|

     C                                           F
E |---------------------|---------------------|---------------------|
B |----1---1---1---1-1--|----1---1---1---1-1--|----1---1---1---1-1--|
G |---0---0---0---0-----|---0---0---0---0-----|---2---2---2---2-----|
D |--2---2---2---2------|--2---2---2---2------|--3---3---3---3------|
A |---------------------|---------------------|---------------------|
E |---------------------|---------------------|---------------------|

     C                     G
E |---------------------|---------------------||
B |----1---1---1---1-1--|----3---3---3---3-3--||
G |---0---0---0---0-----|---4---4---4---4-----||
D |--2---2---2---2------|--5---5---5---5------||
A |---------------------|---------------------||
E |---------------------|---------------------||


E |-----------------------------------|
B |---------------------------2-3-4-5-|
G |-----------2-3-4-5--5-4--5---------|
D |--5-4-5-6--------------------------|
A |-----------------------------------|
E |-----------------------------------|

    F   Dm7   Gm/C#    C7           F   Dm7   Gm       C7
E |---------|--------------------|----------|--------------------|
B |-6---6~--|------6--9h10-9h10--|--6---6~--|------6--9h10-9h10--|
G |---7-----|----7---------------|----7-----|----7---------------|
D |---------|--8-----------------|----------|--8-----------------|
A |---------|--------------------|----------|--------------------|
E |---------|--------------------|----------|--------------------|
                                  
     F   Dm7   Gm/C#    C7       F                   Gm       C
E |----------|----------------|-------------------|-----------------|
B |--6---6~--|------6--9-h10--|-------------------|-----------------|
G |----7-----|----7-----------|-------------------|-----------------|
D |----------|--8-------------|-------------------|-----------------|
A |----------|----------------|-------------------|-----------3--3--|
E |----------|----------------|--1-1-1-1-1-1-1-2--|--3-3-3-3--------|
                                          
     F   Dm7   Gm       C7        F   Dm7   Gm       C7
E |----------|-----------------|----------|---------/6\--|
B |--6---6~--|------6--9b10-8--|--6---6~--|------6--/8\--|
G |----7-----|----7------------|----7-----|----7---------|
D |----------|--8--------------|----------|--8-----------|
A |----------|-----------------|----------|--------------|
E |----------|-----------------|----------|--------------|
                                      
     F   Dm7   Gm7    C7       F        G
E |----------|---------------|--------|------------|
B |--6---6~--|-----6--9-h10--|--6-----|------------|
G |----7-----|---7-----------|--------|------------|  
D |----------|-8-------------|------4-|-5--3-2--0--|
A |----------|---------------|--------|------------|
E |----------|---------------|--------|------------|


     C                                           F
E |---------------------|---------------------|---------------------|
B |----1---1---1---1-1--|----1---1---1---1-1--|----1---1---1---1-1--|
G |---0---0---0---0-----|---0---0---0---0-----|---2---2---2---2-----|
D |--2---2---2---2------|--2---2---2---2------|--3---3---3---3------|
A |---------------------|---------------------|---------------------|
E |---------------------|---------------------|---------------------|

     C                     G
E |---------------------|---------------------|
B |----1---1---1---1-1--|----3---3---3---3-3--|
G |---0---0---0---0-----|---4---4---4---4-----|
D |--2---2---2---2------|--5---5---5---5------|
A |---------------------|---------------------|
E |---------------------|---------------------|

                       C       
E |------------------------0--|------------|
B |-----------------------1---|------------|
G |-----------2-3-4-5----0----|------------|
D |--5-4-5-6------------2-----|------------|
A |--------------------3------|------------|
E |---------------------------|------------|


     C
E |---------------|--------------|---------------|--------------|         
B |--/11--11--10--|--------------|--/11--11--10--|--------------| 
G |--/12--12--10--|--12-12-------|--/12--12--10--|--12-12-------| 
D |---------------|--13-13--10~--|---------------|--13-13--10~--|
A |---------------|--------------|---------------|--------------|
E |---------------|--------------|---------------|--------------|

     F                               C
E |---------------|--------------|---------------|--------------|
B |--/11--11--10--|--------------|--/11--11--10--|--------------|
G |--/12--12--10--|--12-12-------|--/12--12--10--|--12-12-------|
D |---------------|--13-13--10~--|---------------|--13-13--10~--|
A |---------------|--------------|---------------|--------------|
E |---------------|--------------|---------------|--------------|

     G
E |--10------10-10----10--|------10--10-10--|
B |--11------11-11----11--|------11--11-11--|
G |------12---------------|--12-------------|
D |-----------------------|-----------------|
A |-----------------------|-----------------|
E |-----------------------|-----------------|

                       C       
E |------------------------0--|------------|
B |-----------------------1---|------------|
G |-----------2-3-4-5----0----|------------|
D |--5-4-5-6------------2-----|------------|
A |--------------------3------|------------|
E |---------------------------|------------|


     C                                           F
E |---------------------|---------------------|---------------------|
B |----1---1---1---1-1--|----1---1---1---1-1--|----1---1---1---1-1--|
G |---0---0---0---0-----|---0---0---0---0-----|---2---2---2---2-----|
D |--2---2---2---2------|--2---2---2---2------|--3---3---3---3------|
A |---------------------|---------------------|---------------------|
E |---------------------|---------------------|---------------------|

     C                     G
E |---------------------|---------------------|
B |----1---1---1---1-1--|----3---3---3---3-3--|
G |---0---0---0---0-----|---4---4---4---4-----|
D |--2---2---2---2------|--5---5---5---5------|
A |---------------------|---------------------|
E |---------------------|---------------------|

                                               C
E |------------------|----------------------|------0----|
B |------------------|----------------------|-----1-----|
G |-----------2-3-4--|--5-5--4-5--3---------|----0------|
D |--5-4-5-6---------|--------------5--3-1--|---2-------|
A |------------------|----------------------|--3--------|
E |------------------|----------------------|-----------|



*******************************************************************************

                                           Keep rockin !

                                           Max ( Max_Guitarplayer@hotmail.com )

*******************************************************************************

Добавлено: 02.09.2013
Другие материалы по этой песне:
  • Аккорды и текст

Страница создана 02.09.2013
http://primanota.ru/shadows/in-the-mood-chords.htm
Привет, Гость.
Предлагаем пройти революционный курс по гитаре.
Подарок от PrimaNota.Ru, забирай!