PrimaNota.ru - самый крупный в мире бесплатный архив песенных текстов, аккордов, табулатур и нот


Shadows - Classical Gas - бас-таба, видео

Регистрация Запомнить меня
Войти через:  Facebook Google Twitter Vk Yandex Mail.ru

Shadows - Classical Gas - бас-таба, видео

Печатать
Просмотров: 107
Уроки эстрадного вокала в Санкт-Петербурге
s/shadows/Classical_gas.btab

Basstab by Jan Bjorklund, Finland  jani_bjorklund@yahoo.se>
You are welcome to request for basstabs!
Bienvenidos a pedirme transcripciones para el bajo!
Fingering and positions as suggested by TablEdit. 

TablEdited by Jan Bjorklund
Tuning : E A D G 	Time Signature: 6/4

 |       |       |       |        
|--------------------------------|
|--------------------------------|
|0---0-------0-------------------|
|--------3-----------0---0---3---|

 |       |       |       |        
|--------------------------------|
|----------------------------0---|
|--------------------------------|
|------------2-----------0-------|

 |       |       |       |        
|--------------------------------|
|--------0-----------------------|
|--------------------------------|
|0---0-------0-------0---3-------|

 |       |       |       |        
|--------------------------------|
|--------------------------------|
|0-----------0-------------------|
|--------3-----------0---3---3---|

 |       |       |       |        
|--------------------------------|
|--------------------------------|
|0---0-------0-------------------|
|--------3-----------0---0---3---|

 |       |       |       |        
|--------------------------------|
|----------------------------0---|
|--------------------------------|
|------------2-----------0-------|

 |       |       |       |        
|--------------------------------|
|--------0-----------------------|
|--------------------------------|
|0---0-------0-------0---3-------|

 |       |       |       |        
|--------------------------------|
|--------------------------------|
|0-----------0-------------------|
|--------3-----------0---3---3---|

 |       |       |       |        
|--------------------------------|
|--------------------------------|
|0---0-------0-------------------|
|--------3-----------0---0---3---|

 |       |       |       |        
|--------------------------------|
|----------------------------0---|
|--------------------------------|
|------------2-----------0-------|

 |       |       |       |        
|--------------------------------|
|--------0-----------------------|
|--------------------------------|
|0---0-------0-------0---3-------|

 |       |       |       |        
|--------------------------------|
|--------------------------------|
|0-----------0-------------------|
|--------3-----------0---3---3---|

 |       |       |       |        
|--------------------------------|
|--------------------------------|
|0---0-------0-------------------|
|--------3-----------0---0---3---|

 |       |       |       |        
|--------------------------------|
|----------------------------0---|
|--------------------------------|
|------------2-----------0-------|

 |       |       |       |        
|--------------------------------|
|--------0-----------------------|
|--------------------------------|
|0---0-------0-------0---3-------|

 |       |       |       |        
|--------------------------------|
|--------------------------------|
|0-------------------------------|
|--------0---3-------0---3---3---|

 |       |       |       |        
|--------------------------------|
|--------------------------------|
|0---0---0---0---2---2---2---2---|
|--------------------------------|

 |       |       |       |        
|--------------------------------|
|--------------------------------|
|3-------3---2---0---------------|
|------------------------3---0---|

 |       |       |       |        
|--------------------------------|
|----------------------------0---|
|--------------------------------|
|----0---0-------1---------------|

 |       |        |       |       |       |        
|----------------|--------------------------------|
|----------------|--------------------------------|
|----------------|0-------0---0-------------------|
|0---0-------0---|----------------3-------0---3---|

 |       |       |       |        
|--------------------------------|
|--------------------------------|
|0-------0---0---2-------2---2---|
|--------------------------------|

 |       |       |       |       |       |        
|------------------------------------------------|
|------------3-------3---4---0-----------0-------|
|3-------3-------3---------------0---------------|
|----3-------------------------------3-------3---|

 |       |       |        |       |       |       |        
|------------------------|--------------------------------|
|------------------------|--------------------------------|
|------------------------|------------------------4---5---|
|0-------0-------0-------|5-------5---5-------8-----------|

 |       |       |       |        
|----5---7-----------5---7-------|
|--------4-----------------------|
|----------------5---------------|
|------------------------5---0---|

 |       |       |       |        
|--------------------------------|
|----------------------------0---|
|0-------0---0-------3---4-------|
|----0---------------------------|

 |       |       |       |        
|--------------------------------|
|----0-------0-------------------|
|--------3-------3---0-------0---|
|------------------------3-------|

 |       |       |       |        
|--------------------------------|
|----------------------------0---|
|0---0---0---0-------3---4-------|
|--------------------------------|

 |       |       |       |        
|--------------------------------|
|----0---------------------------|
|--------3---0-----------0-------|
|----------------3---3-------3---|

 |       |       |       |       |       |        
|------------------------------------------------|
|------------------------------------------------|
|--------3-------3---------------1-----------0---|
|--------------------1-------1-------------------|

 |       |       |       |        
|--------------------------------|
|--------------------------------|
|--------0-----------0-----------|
|--------------------------------|

 |       |       |       |        
|--------------------------------|
|--------------------------------|
|0-------------------------------|
|--------------------------------|

 |       |       |       |        
|--------------------------------|
|--------------------------------|
|0-------------------------------|
|--------------------------------|

 |       |       |       |        
|--------------------------------|
|--------------------------------|
|--------------------------------|
|--------------------------------|

 |       |       |       |        
|--------------------------------|
|--------------------------------|
|--------------------------------|
|--------------------------------|

 |       |       |       |        
|--------------------------------|
|--------------------------------|
|--------------------------------|
|--------------------------------|

 |       |       |       |        
|--------------------------------|
|--------------------------------|
|--------------------------------|
|--------------------------------|

 |       |       |       |        
|--------------------------------|
|--------------------------------|
|--------------------------------|
|0-------0-------0-------0-------|

 |       |       |       |        
|--------------------------------|
|--------------------------------|
|2---2---2---2-------------------|
|----------------0-------0-------|

 |       |       |       |        
|--------------------------------|
|--------------------------------|
|--------------------------------|
|0-------0-------0-------0-------|

 |       |       |        |       |       |        
|------------------------|------------------------|
|------------------------|------------------------|
|2---2---2---2-----------|----------------3-------|
|----------------0-------|----3-------------------|

 |       |       |        |       |       |        
|------------------------|------------------------|
|------------------------|------------------------|
|----------------1-------|----0-----------0-------|
|----1-------------------|------------------------|

 |       |       |        |       |       |       |        
|------------------------|--------------------------------|
|------------------------|--------------------------------|
|----0-----------0-------|0-------------------------------|
|------------------------|--------------------------------|

 |       |       |        |       |       |       |        
|------------------------|--------------------------------|
|------------------------|--------------------------------|
|------------------------|0---0-------0-------0-------0---|
|------------------------|--------3---------------3-------|

 |       |       |       |        
|--------------------------------|
|--------------------------------|
|----0-------0-------0-------0---|
|--------3---------------3-------|

 |       |       |       |        
|--------------------------------|
|--------------------------------|
|----0-------0-------0-------0---|
|--------3---------------3-------|

 |       |       |       |        
|--------------------0-----------|
|--------------------------------|
|----0-------0-------0-------0---|
|--------3---------------3-------|

 |       |       |       |        
|--------------------------------|
|--------------------------------|
|----0-------0-------0-------0---|
|--------3---------------3-------|

 |       |       |       |        
|--------------------------------|
|--------------------------------|
|----0-------0-------0-------0---|
|--------3---------------3-------|

 |       |       |       |        
|--------------------------------|
|--------------------------------|
|----0-------0-------0-------0---|
|--------3---------------3-------|

 |       |       |       |        
|--------------------------------|
|--------------------------------|
|----0-------0-------0-----------|
|--------3---------------3---3---|

 |       |       |       |        
|--------------------------------|
|--------------------------------|
|3-------3-------3---3---3-------|
|----------------------------3---|

 |       |       |       |        
|--------------------------------|
|--------------------------------|
|2-------2-------2---2---2-------|
|----------------------------3---|

 |       |       |       |        
|--------------------------------|
|--------------------------------|
|0-------0-------0---0---0-------|
|----------------------------0---|

 |       |       |       |        
|--------------------------------|
|--------------------------------|
|--------------------------------|
|3---3---3---3-------3---3---3---|

 |       |       |       |        
|--------------------------------|
|--------------------------------|
|3-------3-------3---3---3-------|
|----------------------------3---|

 |       |       |       |        
|--------------------------------|
|--------------------------------|
|2-------2-------2---2---2-------|
|----------------------------3---|

 |       |       |       |        
|--------------------------------|
|--------------------------------|
|0-------0-------0---0---0---0---|
|--------------------------------|

 |       |       |       |        
|--------------------------------|
|--------------------------------|
|--------------------------------|
|3-----------2-----------0-------|

 |       |       |       |        
|--------------------------------|
|--------------------------------|
|--------------------2---0-------|
|0---------------------------3---|

 |       |       |       |        
|--------------------------------|
|--------------------------------|
|0---------------0-------2-------|
|--------3-----------------------|

 |       |       |       |        
|--------------------------------|
|--------3-------0---------------|
|3-------------------------------|
|------------------------3-------|

 |       |       |        |       |       |       |        
|------------------------|--------------------------------|
|------------------------|--------------------------------|
|------------------------|----------------------------5---|
|0-------0-------0-------|5-------5---5-------5---8-------|

 |       |       |       |        
|----5---7-----------5---7-------|
|--------------------------------|
|--------5-----------------------|
|------------8-------5---8-------|

 |       |       |       |        
|--------------------------------|
|----------------------------0---|
|0-------0---0-------0---3-------|
|--------------------------------|

 |       |       |       |        
|--------------------------------|
|--------------------------------|
|--------------------------------|
|----2---3---2---3---2---3---4---|

 |       |       |       |        
|--------------------------------|
|--------------------------------|
|----------------------------5---|
|5-------5---5-------5---8-------|

 |       |       |       |        
|----7---5-----------------------|
|--------------------------------|
|--------------------------------|
|--------2-------3-------4---3---|

 |       |       |       |        
|--------------------------------|
|--------------------------------|
|--------3-----------------------|
|--------------------1-----------|

 |       |       |       |        
|--------------------------------|
|--------------------------------|
|1-----------0-----------0-------|
|--------------------------------|

 |       |       |        |       |       |       |        
|------------------------|--------------------------------|
|------------------------|--------------------------------|
|----0-----------0-------|0-------------------------------|
|------------------------|--------------------------------|

 |       |       |       |        
|--------------------------------|
|--------------------------------|
|--------------------------------|
|----------------------------3---|

 |       |       |       |        
|--------------------------------|
|--------------------------------|
|0---0-------0-------------------|
|--------3-----------0---3---3---|

 |       |       |       |        
|--------------------------------|
|----------------------------0---|
|--------------------------------|
|------------2-----------0-------|

 |       |       |       |        
|--------------------------------|
|--------0-----------------------|
|--------------------------------|
|0---0-------0-------0---3---3---|

 |       |       |       |        
|--------------------------------|
|--------------------------------|
|0-------2-------3-------2-------|
|----------------------------3---|

 |       |       |       |        
|--------------------------------|
|--------------------------------|
|0---0-------0-------------------|
|--------3-----------0---3---3---|

 |       |       |       |        
|--------------------------------|
|----------------------------0---|
|--------------------------------|
|------------2-----------0-------|

 |       |       |       |        
|--------------------------------|
|--------0-----------------------|
|--------------------------------|
|0---0-------0-------0---3---3---|

 |       |       |       |        
|--------------------------------|
|--------------------------------|
|0-----------0-------------------|
|----------------3-----------3---|

 |       |       |       |        
|--------------------------------|
|--------------------------------|
|0-----------2---------------2---|
|--------------------------------|

 |       |       |       |        
|--------------------------------|
|--------------------------------|
|3-----------2---0---------------|
|----------------------------3---|

 |       |       |       |        
|--------------------------------|
|----------------------------0---|
|--------------------------------|
|0-------0-------1---------------|

 |       |        |       |       |       |        
|----------------|--------------------------------|
|----------------|--------------------------------|
|----------------|0---------------0---------------|
|0---0-------0---|--------3---------------3-------|

 |       |       |       |        
|------------------------0-------|
|--------3-------0---------------|
|3-------------------------------|
|--------------------------------|

 |       |       |       |        
|--------------------------------|
|2-------------------------------|
|--------------------0-----------|
|--------------------------------|

 |       |       |       |        
|--------------------------------|
|0-------------------------------|
|------------------------3-------|
|------------3-------------------|

 |       |       |        |       |       |       |        
|------------------------|--------------------------------|
|------------------------|--------------------------------|
|----------------1-------|0-------------------------------|
|----1-------------------|--------------------------------|

 

Created with TablEdit http://www.tabledit.com/

............................................................
     
Добавлено: 18.06.2013
Другие материалы по этой песне:
  • Аккорды и текст

Страница создана 18.06.2013
http://primanota.ru/shadows/classical-gas-chords.htm
Привет, Гость.
Предлагаем пройти революционный курс по гитаре.
Подарок от PrimaNota.Ru, забирай!