PrimaNota.ru - самый крупный в мире бесплатный архив песенных текстов, аккордов, табулатур и нот


Serj Tankian - Occupied Tears - текст песни, таба, видео

Регистрация Запомнить меня
Войти через:  Facebook Google Twitter Vk Yandex Mail.ru

Serj Tankian - Occupied Tears - текст песни, таба, видео

Печатать
Просмотров: 415
-------------------------------------------------------------------------------
                             Occupied Tears - Serj Tankian
-------------------------------------------------------------------------------
 Tabbed by: Chris Esp
 E-mail: greekgamer17@yahoo.gr

 Tuning: D Tuning

 INTRO:

e|---10------|
B|---10------|
G|---10------|
D|---12--x6--|
A|---12------|
E|---10------|

 0:23 VERSE

 Guitar 1:

e|--------------------------|              e|---------------------------|
B|--------------------------|              B|---------------------------|
G|--7777-5555-77777777------|              G|--7777-5555-7777-7777------|
D|--7777-5555-77777777--x4--| alternative  D|--7777-5555-8888-7777--x4--|
A|--5555-3333-55555555------|   version    A|--5555-3333-5555-5555------|
E|--------------------------|              E|---------------------------|

Guitar 2

e|--1111-0000-3333-1111--x4-----------------------------------|
B|--------------------------------6666-5555-8888-6666--x4-----|
G|---------------------------or-------------------------------|
D|------------------------------------------------------------|
A|------------------------------------------------------------|
E|------------------------------------------------------------|

 0:39 PRE-CHORUS

 Guitar 1:

e|--------------------------------------------------|
B|--------------------------------------------------|
G|--77-------77-------77-------77-------------------|
D|--77-------77-------77-------77--------------x2---|
A|--55-------55-------55-------55--3/5-787----------|
E|------12/------12/------12/-------------8---------|

 Guitar 2:

e|-------------------------------------------------------------|
B|--10101010101010---------------------------------------------|
G|----------------1010101010101010101010101010-----------------|
D|--------------------------------------------1212121212--x2---|
A|-------------------------------------------------------------|
E|-------------------------------------------------------------|

 0:55 CHORUS

 Both Guitars:

e|-------------------------------------------------|
B|-------------------------------------------------|
G|--77777777---------------------------------------|
D|--77777777-88888888-55555555-101010109109--------|
A|--55555555-88888888-55555555-8-8-8-8-78-7---x2---|
E|-----------66666666-33333333---------------------|


 1:10 VERSE  

 1:25 PRE-CHORUS 

 1:41 CHORUS x2

 2:12 PIANO INSTRUMENTAL

(2:28 OPTIONAL CHORDS: A,Bm,Bm,F#m) 

 2:59 VERSE

 3:15 PRE-CHORUS

 3:31 CHORUS x2


             THE END. 


************************************

| /   slide up
| \   slide down
| h   hammer-on
| p   pull-off
| ~   vibrato
| +   harmonic
| x   Mute note
| b   Bend
| pb  Pre-bend
| br  Bend release
| pbr Pre-bend release
| brb Bend release bend

************************************
Добавлено: 11.06.2015
Другие материалы по этой песне:
  • Аккорды и текст

Страница создана 16.01.2014
http://primanota.ru/serj-tankian/occupied-tears-chords.htm
Привет, Гость.
Предлагаем пройти революционный курс по гитаре.
Подарок от PrimaNota.Ru, забирай!