PrimaNota.ru - самый крупный в мире бесплатный архив песенных текстов, аккордов, табулатур и нот


Serj Tankian - Butterfly - текст песни, бас-таба, видео

Регистрация Запомнить меня
Войти через:  Facebook Google Twitter Vk Yandex Mail.ru

Serj Tankian - Butterfly - текст песни, бас-таба, видео

Печатать
Просмотров: 159
-------------------------------------------------------------------------------
                             Butterfly - Serj Tankian
-------------------------------------------------------------------------------
Tabbed by: Stancranford
E-mail: simonhawkinsuk@gmail.com

Tuning: CGCF

Main Riff

F|---------------------------------------------------------------------------|
C|---------------------------------------------------------------------------|
G|-----------------1-1-1-1-1-1-1-1-3-3-3-3-3-3-3-3-3-3-3-3-3-3-3-3-----------|
C|-5-5-5-5-5-5-5-5-----------------------------------------------------------|

Verse 1

F|-------------------------------------------------------------------|
C|-------------------------------------------------------------------|
G|-------------------------------------------------------------------|
C|-5-5-5-5-5-5-5-5-5-5-5-5-5-5-5-5-5-5-5-5-5-5-5-5-5-5-5-5-5-5-3-3-3-|

F|-----------------------------------------------------------------|
C|-1-1-1-1-1-1-1-1-------------------------------------------------|
G|-----------------1-1-1-1-1-1-1-1-3-3-3-3-3-3-3-3-3-3-3-3---------|
C|---------------------------------------------------------3-3-3-3-|

F|---------------------------------------------------------------------------|
C|---------------------------------------------------------------------------|
G|---------------------------------------------------------------------------|
C|-5-5-5-5-5-5-5-5-5-5-5-5-5-5-3h5-3h5-5-5-5-5-5-5-5-5-5-5-5-5-5-5-3h5-3-3---|

F|---------------------------------------------------------------------------|
C|-1-1-1-1-1-1-1-1-----------------------------------------------------1h3---|
G|-----------------1-1-1-1-1-1-1-1-3-3-3-3-3-3-3-3-3-3-3-3-3-3-3-3-1h3-------|
C|---------------------------------------------------------------------------|

Chorus

F|------------------------------------------------------------|
C|------------------------------------------------------------|
G|-2--2-2-2----------4--4-4-4---------------------------------|
C|----------4--4-4-4----------1-1-1-1-1-1-1-1-1-1-1-1-1-1-1-1-|

Verse 2

F|---------------------------------------------------------------------------|
C|---------------------------------------------------------------------------|
G|---------------------------------------------------------------------------|
C|-5-5-5-5-5-5-5-5-5-5-5-5-5-5-3h5-3h5-5-5-5-5-5-5-5-5-5-5-5-5-5-5-3h5-3-3---|

F|---------------------------------------------------------------------------|
C|-1-1-1-1-1-1-1-1-----------------------------------------------------1h3---|
G|-----------------1-1-1-1-1-1-1-1-3-3-3-3-3-3-3-3-3-3-3-3-3-3-3-3-1h3-------|
C|---------------------------------------------------------------------------|

Breakdown

F|-0-0-0-0-0-0-0-0-0-0-0-0-0-0-0-0-----------------------------------------------------------------|
C|---------------------------------1-1-1-1-1-1-1-1-1-1-1-1-1-1-1-1---------------------------------|
G|-----------------------------------------------------------------3-3-3-3-3-3-3-3-3-3-3-3-3-3-3-3-|
C|-------------------------------------------------------------------------------------------------|

F|---------------------------------|
C|---------------------------------|
G|-----------------1-1-1-1-1-1-1-1-|
C|-6-6-6-6-6-6-6-6-----------------|

Bass Solo
                                    x4
F|-----------------------------------|------|
C|-----------------------------------|------|
G|-----------------------------------|------|
C|-1--1-1-4--4-4-6--6-6-8--8-8-9-8-6-|-1----|


Order:
Drum Intro
Main Riff x 6
Verse 1 x 1
Main Riff x 2
Chorus x 2
Verse 2 x 2
Main Riff x 2
Chorus x 4
Breakdown x 1
Bass Solo x 1
Chorus x 4


| /  slide up
| \  slide down
| h  hammer-on
| p  pull-off
| ~  vibrato
| +  harmonic
| x  Mute note
===============================================================================
Добавлено: 22.08.2015
Другие материалы по этой песне:

Страница создана 14.12.2013
http://primanota.ru/serj-tankian/butterfly-chords.htm
Привет, Гость.
Предлагаем пройти революционный курс по гитаре.
Подарок от PrimaNota.Ru, забирай!