PrimaNota.ru - самый крупный в мире бесплатный архив песенных текстов, аккордов, табулатур и нот


Sepultura - A Hora E A Vez Cabelo Nascer - таба, видео

Регистрация Запомнить меня
Войти через:  Facebook Google Twitter Vk Yandex Mail.ru

Sepultura - A Hora E A Vez Cabelo Nascer - таба, видео

Печатать
Просмотров: 92
Band:  Sepultura
Album: Beneath the Remains
Song:  A Hora E A Vez Cabelo Nascer

Copyright (c)  (Road Runner) (1989)
Version 1.0 - (24/02/07)

Transcribed By: Steve
Email:          stephen.elvidge1@ntlworld.com


.  - palm mute           /  - slide up to
\  - slide down to       ~  - vibrato
h  - hammer on           b  - Bend
p  - pull off            Suffixes for bend
t  - tap                 f  - full bend    h - half bend
ph - pinched harmonic    q  - quarter bend t - tap bend
*  - see comment         ^  - Hold bend    r release bend
x  - Stuccatto           ~  - vibrato bend
,  - slight palm mute    () - ghost note, sustained note
"  - tremolo note        <> - harmonic
pb - pre bend

Tuning E A D G B E



 
 Intro

 Riff A
     [-PM-]   [-PM-]         ~~~~        PM
|-------------------------------------------|
|-------------------------------------------|
|-------------------------------------------|
|----------------------------------7/8/9----|
|-5-7-7777---5---------------------5/6/7-77-|
|--------------7-3-5--3--5--3---p0----------|


 Guitar 1
     [-PM-]   [-PM-]         ~~~~
[------------------------------------------|
[------------------------------------------|
[------------------------------------------|
[----------------------------------7/8/9-\-|
[-5-7-7777---5---------------------5/6/7-\-|
[--------------7-3-5--3--5--3---p0---------|
[Guitar 2
[
[------------------------------------------|
[------------------------------------------|
[------------------------------------------|
[----------------------------------7/8/9---|
[-2----------------(2)-------------5/6/7---|
[-0----------------(0)---------------------|


 Verse

 Guitar 1
     [-PM-]   [-PM-]         ~~~~
[------------------------------------------|
[------------------------------------------|
[------------------------------------------|
[----------------------------------7/8/9-\-|
[-5-7-7777---5---------------------5/6/7-\-|
[--------------7-3-5--3--5--3---p0---------|
[Guitar 2
[  [--------------PM-------------]
[------------------------------------------|
[------------------------------------------|
[------------------------------------------|
[----------------------------------7/8/9-\-|
[-2--------------------------------5/6/7-\-|
[-0-0-0-0-0-0-0-0-0-0-0-0-0-0-0-0----------| Rpt


|-------------------------------|
|-------------------------------|
|-------------------------------|
|-7/9-------(9)--------\--------|
|-5/7-------(7)--------\--------|
|-------------------------------|

     [-PM-]   [-PM-]         ~~~~
|-------------------------------------------|
|-------------------------------------------|
|-------------------------------------------|
|----------------------------------7/8/9----|
|-5-7-7777---5---------------------5/6/7-77-|
|--------------7-3-5--3--5--3---p0----------|

|--------------------------------------------------|
|--------------------------------------------------|
|----------------------------------------------9---|
|-7/9----------(9)-----------\7-------(7)------9---|
|-5/7----------(7)-----------\5-------(5)------7---|
|-5/7----------(7)-----------\5-------(5)----------|

Guitar 1
     [-PM-]   [-PM-]         ~~~~
[------------------------------------------|
[------------------------------------------|
[------------------------------------------|
[----------------------------------7/8/9-\-|
[-5-7-7777---5---------------------5/6/7-\-|
[--------------7-3-5--3--5--3---p0---------|
[Guitar 2
[  [--------------PM-------------]
[------------------------------------------|
[------------------------------------------|
[------------------------------------------|
[----------------------------------7/8/9-\-|
[-2--------------------------------5/6/7-\-|
[-0-0-0-0-0-0-0-0-0-0-0-0-0-0-0-0----------| Rpt


|-------------------------------|
|-------------------------------|
|-------------------------------|
|-7/9-------(9)--------\--------|
|-5/7-------(7)--------\--------|
|-------------------------------|

 Rpt Riff A

|--------------------------------------------------|
|--------------------------------------------------|
|----------------------------------------------9---|
|-7/9----------(9)-----------\7-------(7)----7-9---|
|-5/7----------(7)-----------\5-------(5)----5-7---|
|-5/7----------(7)-----------\5-------(5)----5-----|

 [---------------PM-------------------]
|---------------------------------------|
|---------------------------------------|
|---------------------------------------|
|---------------------------------------|
|---------------------------------------|
|-0-0-0-0-0-0-0-0-0-0-0-0-0-0-0-0-0-0-0-|

 [---------------PM-------------------]
|---------------------------------------|
|---------------------------------------|
|---------------------------------------|
|---------------------------------------|
|---------------------------------------|
|-0-0-0-0-0-0-0-0-0-0-0-0-0-0-0-0-0-0-0-|

 [-------PM-------]
|--------------------|
|--------------------|
|--------------------|
|-------------9-5-4--|
|-------------7-3-2--|
|-0-0-0-0-0-0--------|

                   PM                                      [PM]
|-----------------------------------------------------------------------|
|-----------------------------------------------------------------------|
|-----------------------------------------------------------------------|
|-2-------(2)-------4-5-------(5)---------------------------5-6-7--7--\-|
|-0-------(0)-------2-3-------(3)--------5------(5)-------5-3-4-5--5--\-|
|----------------------------------------3------(3)-------3-------------|

                   PM                            [PM]
|-------------------------------------------------------------------|
|-------------------------------------------------------------------|
|-------------------------------------------------------------------|
|-2-------(2)-------4-5----(5)---5-5-5------------5-6-7--7--7--7--\-|
|-0-------(0)-------2-3----(3)---3-3-3-5--5--5--5-3-4-5--5--5--5--\-|
|--------------------------------------3--3--3--3-------------------|

          [--PM---]
|------------------|
|------------------|
|------------------|
|-7/9-7/9----------|
|-5/7-5/7----------|
|---------00-0-0-0-| Rpt 4 X


|-----------------------------------------------------|
|-----------------------------------------------------|
|-----------------------------------------------------|
|--------------------------7-----------(7)------------|
|-2-----------(2)----------5-----------(5)------------|
|-0-----------(0)-------------------------------------|

|-----------------------------------------------------|
|-----------------------------------------------------|
|--------------------------0-----------(0)------------|
|-2-----------(2)----------0-----------(0)------------|
|-0-----------(0)-------------------------------------|
|--------------------------3-----------(3)------------|


 [-------------------------------PM------------------------------]
|------------------------------------------------------------------|
|------------------------------------------------------------------|
|------------------------------------------------------------------|
|---------------------------------7-7-7-7-7-7-7-7-7-7-7-7-7-7-7-7--|
|-2-2-2-2-2-2-2-2-2-2-2-2-2-2-2-2-5-5-5-5-5-5-5-5-5-5-5-5-5-5-5-5--|
|-0-0-0-0-0-0-0-0-0-0-0-0-0-0-0-0----------------------------------|

 [-------------------------------PM------------------------------]
|------------------------------------------------------------------|
|------------------------------------------------------------------|
|------------------------------------------------------------------|
|-2-2-2-2-2-2-2-2-2-2-2-2-2-2-2-2----------------------------------|
|-0-0-0-0-0-0-0-0-0-0-0-0-0-0-0-0-5-5-5-5-5-5-5-5-5-5-5-5-5-5-5-5--|
|---------------------------------3-3-3-3-3-3-3-3-3-3-3-3-3-3-3-3--|

          [--PM---]
|------------------|
|------------------|
|------------------|
|-7/9-7/9----------|
|-5/7-5/7----------|
|---------00-0-0-0-| Rpt 4 X

 Backinmg for solo

 [------------------------------PM-------------------------------]
|-----------------------------------------------------------------|
|-----------------------------------------------------------------|
|-----------------------------------------------------------------|
|-----------------------------------------------------------------|
|-----------------------------------------------------------------|
|-0-0-0-0-0-0-0-0-0-0-0-0-0-0-0-0-0-0-0-0-0-0-0-0-0-0-0-0-0-0-0-0-| 

 [------------------------------PM-------------------------------]
|-----------------------------------------------------------------|
|-----------------------------------------------------------------|
|-----------------------------------------------------------------|
|-----------------------------------------------------------------|
|---------------------------------7-7-7-7-7-7-7-7-7-7-7-7-7-7-7-7-|
|-0-0-0-0-0-0-0-0-0-0-0-0-0-0-0-0-0-0-0-0-0-0-0-0-0-0-0-0-0-0-0-0-|

  [---------PM--------]   PM
|-------------------------------|
|-------------------------------|
|-------------------------------|
|-----------------------2----2--|
|-----------------------2----2--|
|-0-0-0-0-0-0-0-0-0-0-0---00----| Rpt 5 X

 Guitar 1
     [-PM-]   [-PM-]         ~~~~
[--------------------------------------------|
[--------------------------------------------|
[--------------------------------------------|
[----------------------------------7-/8-/9---|
[-5-7-7777---5---------------------5-/6-/7---|
[--------------7-3-5--3--5--3---p0-----------|
[Guitar 2
[
[--------------------------------------------|
[--------------------------------------------|
[--------------------------------------------|
[----------------------------------7-/8-/9---|
[-2----------------(2)-------------5-/6-/7---|
[-0----------------(0)-----------------------|


|--------------------------------------------------------------------|
|--------------------------------------------------------------------|
|--------------------------------------------------------------------|
|-9----------------------------------------to noise and feedback-----|
|-7---------------------------------------------------------------2--|
|-0--0-0-0-0-0-0-0-0-0-0-0-0-0-0-0-0-0-0-0-0-0-0-0----------------0--|



END

Добавлено: 22.06.2013
Другие материалы по этой песне:
  • Аккорды и текст

Страница создана 22.06.2013
http://primanota.ru/sepultura/a-hora-e-a-vez-cabelo-nascer-chords.htm
Привет, Гость.
Предлагаем пройти революционный курс по гитаре.
Подарок от PrimaNota.Ru, забирай!