PrimaNota.ru - самый крупный в мире бесплатный архив песенных текстов, аккордов, табулатур и нот


Sepultura - City Of Dis - текст песни, таба, видео

Регистрация Запомнить меня
Войти через:  Facebook Google Twitter Vk Yandex Mail.ru

Sepultura - City Of Dis - текст песни, таба, видео

Печатать
Просмотров: 104
-------------------------------------------------------------------------------
                              CITY OF DIS
                            As recorded by Sepultura
                         (From the 2006 Album DANTE XXI)
-------------------------------------------------------------------------------

Words by Derrick Green

Music by Igor Cavalera, Derrick Green & Andreas Kisser

Transcribed by BaronLundi

Tuning (D G C F A D)

Q=160
4/4

    Q.   Q.   Q    +E  Q.   Q  Q   4x
||---------------|-----------------||
||o--------------|----------------o||
||---------------|-----------------||
||--9----9----9--|-(9)-9----8--8---||
||o-7----7----7--|-(7)-7----7--7--o||
||---------------|-----------------||


4/4
    
    Q.            Q.   Q    +E  Q.   Q  Q
||------------------------|-----------------|
||o-----------------------|-----------------|
||------------------------|-----------------|
||--9-------------9----9--|-(9)-9----8--8---|
||o-7-------------7----7--|-(7)-7----7--7---|
||------------------------|-----------------|
|
|
|       |-3--|
|   E  +S  S S H.            H.         E E
||------------------------|-----------------|
||o-----------------------|-----------------|
||--4--(4)-5-3-4----------|---------------4-|
||------------------------|-----------------|
||o-----------------------|-----------------|
||------------------------|-----------------|


  Q.      Q.   Q    +E  Q.   Q  Q
|-----------------|---------------------|
|-----------------|---------------------|
|-----------------|---------------------|
|-9-------9----9--|-(9)-9----8--8-------|
|-7-------7----7--|-(7)-7----7--7-------|
|-----------------|---------------------|
|
|                                 |-3-|
| E  E H.            H.         E S S S
|-----------------|---------------------|
|-----------------|---------------------|
|-4--5-3----------|---------------4-5-3-|
|-----------------|---------------------|
|-----------------|---------------------|
|-----------------|---------------------|


  Q.   Q.   Q    +E  Q.   Q  Q     Q.       Q.   Q    +E      Q.   Q  Q
|--------------|-----------------|------------------|----------------------||
|--------------|-----------------|------------------|---------------------o||
|--------------|-----------------|------------------|----------------------||
|-9----9----9--|-(9)-9----8--8---|-9--------9----9--|-(9)-----9----8--8----||
|-7----7----7--|-(7)-7----7--7---|-7--------7----7--|-(7)-----7----7--7---o||
|--------------|-----------------|------------------|----------------------||
|
|                                                     
|                                                      \1.25/
|                                                      ~~~~~~~
| W               H.         E E   E  E +H.           +W
|--------------|-----------------|------------------|----------------------||
|--------------|-----------------|------------------|---------------------o||
|-4------------|---------------4-|-4----------------|----------------------||
|--------------|-----------------|----2-(2)---------|-(2)------------------||
|--------------|-----------------|------------------|---------------------o||
|--------------|-----------------|------------------|----------------------||


    Q.   Q.   Q    +E  Q.   Q  E E   Q.   Q.   Q    +E  Q.   Q  E E   4x
||---------------|-----------------|--------------|-------------------||
||o--------------|-----------------|--------------|------------------o||
||---------------|-----------------|--------------|-------------------||
||---------------|-----------------|--------------|-------------------||
||o--------------|-----------------|--------------|------------------o||
||--0----0----0--|-(0)-0----0--7p6-|-0----0----0--|-(0)-0----0--7p6---||


    PM------------------------------------------------------|
    S S S S S S S S S S S S S S S S   S S S S S S S S S S S S E E
||----------------------------------|-----------------------------|
||o---------------------------------|-----------------------------|
||----------------------------------|-----------------------------|
||----------------------------------|-----------------------------|
||o---------------------------------|-----------------------------|
||--0-0-0-0-0-0-0-0-0-0-0-0-0-0-0-0-|-0-0-0-0-0-0-0-0-0-0-0-0-7p6-|


  PM--------------------------------------------------------------|
  S S S S S S S S S S S S S S S S   S S S S S S S S S S S S S S S S
|---------------------------------|----------------------------------||
|---------------------------------|---------------------------------o||
|---------------------------------|----------------------------------||
|---------------------------------|----------------------------------||
|---------------------------------|---------------------------------o||
|-0-0-0-0-0-0-0-0-0-0-0-0-7-7-7-7-|-7-7-6-6-6-6-6-6-6-6-6-6-6-6-6-6--||


  Q.   Q.   Q    +E  Q.   Q  E E   Q.   Q.   Q    +E  Q.   Q  E E
|--------------|-----------------|--------------|-----------------|
|--------------|-----------------|--------------|-----------------|
|--------------|-----------------|--------------|-----------------|
|--------------|-----------------|--------------|-----------------|
|--------------|-----------------|--------------|-----------------|
|-0----0----0--|-(0)-0----0--7p6-|-0----0----0--|-(0)-0----0--7p6-|


    PM------------------------------------------------------|
    S S S S S S S S S S S S S S S S   S S S S S S S S S S S S E E
||----------------------------------|-----------------------------|
||o---------------------------------|-----------------------------|
||----------------------------------|-----------------------------|
||----------------------------------|-----------------------------|
||o---------------------------------|-----------------------------|
||--0-0-0-0-0-0-0-0-0-0-0-0-0-0-0-0-|-0-0-0-0-0-0-0-0-0-0-0-0-7p6-|


  PM--------------------------------------------------------------|
  S S S S S S S S S S S S S S S S   S S S S S S S S S S S S S S S S
|---------------------------------|----------------------------------||
|---------------------------------|---------------------------------o||
|---------------------------------|----------------------------------||
|---------------------------------|----------------------------------||
|---------------------------------|---------------------------------o||
|-0-0-0-0-0-0-0-0-0-0-0-0-7-7-7-7-|-7-7-6-6-6-6-6-6-6-6-6-6-6-6-6-6--||


    E E E E E E E E   E E E E E E E E  4x
||------------------|------------------||
||o-----------------|-----------------o||
||--4-4-4-4-4-4-4-4-|-3-3-3-3-3-3-3-3--||
||------------------|------------------||
||o-2-2-2-2-2-2-2-2-|-1-1-1-1-1-1-1-1-o||
||------------------|------------------||


      E E E Q   Q.     E E E E E E E E  4x
|-||-----------------|------------------||
|-||o----------------|-----------------o||
|-||--4-4-4S8--10----|-3-3-3-3-3-3-3-3--||
|-||-----------------|------------------||
|-||o-2-2-2S6---8----|-1-1-1-1-1-1-1-1-o||
|-||-----------------|------------------||


    PM--------|   PM--------|     PM--------|   PM--------|
  E S S S S S S E S S S S S S   E S S S S S S E S S S S S S
|-----------------------------|-----------------------------|
|-----------------------------|-----------------------------|
|-----------------------------|-----------------------------|
|-----------------------------|-----------------------------|
|-2-------------2-------------|-2-------------2-------------|
|-0-0-0-0-0-0-0-0-0-0-0-0-0-0-|-0-0-0-0-0-0-0-0-0-0-0-0-0-0-|


     Q.    Q.    Q     +E   Q.    Q   E  E
||------------------|----------------------|
||o-----------------|----------------------|
||------------------|----------------------|
||------------------|----------------------|
||o-----------------|----------------------|
||---0-----0-----0--|--(0)--0-----0---7p=6-|
|
| 
|    ~~~~~~~~~~~~~~~~~~~~~~~~~~~~~~~~~~~~~~~
|    Q.    Q.    Q     +E   Q.    Q   E  E
||------------------|----------------------|
||o-12----12----12--|-(12)-12----12--12-12-|
||------------------|----------------------|
||------------------|----------------------|
||o-----------------|----------------------|
||------------------|----------------------|


  Q.    Q.   Q    +E   Q.   Q   E E
|---------------|--------------------|
|---------------|--------------------|
|---------------|--------------------|
|---------------|--------------------|
|---------------|--------------------|
|-0-----0----0--|-(0)--0----0---7p6--|
|
|~~~~~~~~~~~~~~~~~~~~~~~~~~~~~~~~~~
| Q.    Q.   Q    +E   Q.   Q   Q
|-8----------8--|-(8)-------8--------|
|------12-------|-----12-------12----|
|---------------|--------------------|
|---------------|--------------------|
|---------------|--------------------|
|---------------|--------------------|


   Q.   Q.    Q     +E  Q.    Q  E E    Q.   Q.    Q     +E  Q.    Q  E E
|----------------|-------------------|----------------|--------------------||
|----------------|-------------------|----------------|-------------------o||
|----------------|-------------------|----------------|--------------------||
|----------------|-------------------|----------------|--------------------||
|----------------|-------------------|----------------|-------------------o||
|--0----0-----0--|--(0)-0-----0--7p6-|--0----0-----0--|--(0)-0-----0--7p6--||
|
| 
|  ~~~~~~~~~~~~~~~~~~~~~~~~~~~~~~~~~~~~~~~~~~~~~~~~~~~~~~~~~~~~~~~~~~~~~~
|  Q.   Q.    Q     +E  Q.    Q  Q      Q.   Q.    Q     +E  Q.    Q  Q
|-------7--------|------7--------7---|-------7--------|------7--------7----||
|-11---------11--|-(11)------11------|-11---------11--|-(11)------11------o||
|----------------|-------------------|----------------|--------------------||
|----------------|-------------------|----------------|--------------------||
|----------------|-------------------|----------------|-------------------o||
|----------------|-------------------|----------------|--------------------||


      Q.    Q.    Q     +E   Q.    Q      E E
||-------------------|------------------------|
||o------------------|------------------------|
||-------------------|------------------------|
||-------------------|------------------------|
||o------------------|------------------------|
||----0-----0-----0--|--(0)--0-----0------7p6-|
|
|
|                                      ~~~~
|     Q.    Q.    Q     +E   Q.    E  +Q.
||---------10--------|------10----------------|
||o-/15----------15--|-(15)-------15-(15)-----|
||-------------------|------------------------|
||-------------------|------------------------|
||o------------------|------------------------|
||-------------------|------------------------|


    Q.    Q.    Q     +E   Q.    Q      E E
|------------------|-------------------------|
|------------------|-------------------------|
|------------------|-------------------------|
|------------------|-------------------------|
|------------------|-------------------------|
|---0-----0-----0--|--(0)--0-----0------7p6--|
|
|                                    ~~~~
|   Q.    Q.    Q     +E   Q.    E  +Q.
|--------10--------|------10-----------------|
|-/12----------12--|-(12)-------12-(12)------|
|------------------|-------------------------|
|------------------|-------------------------|
|------------------|-------------------------|
|------------------|-------------------------|



    Q.    Q.    Q     +E   Q.    Q      E E
|------------------|------------------------|
|------------------|------------------------|
|------------------|------------------------|
|------------------|------------------------|
|------------------|------------------------|
|---0-----0-----0--|--(0)--0-----0------7p6-|
|
|                                    ~~~~
|   Q.    Q.    Q     +E   Q.    E  +Q.
|--------10--------|------10----------------|
|-/11----------11--|-(11)-------11-(11)-----|
|------------------|------------------------|
|------------------|------------------------|
|------------------|------------------------|
|------------------|------------------------|


    Q.    Q.    Q     +E   Q.    Q      E E
|------------------|-------------------------||
|------------------|------------------------o||
|------------------|-------------------------||
|------------------|-------------------------||
|------------------|------------------------o||
|---0-----0-----0--|--(0)--0-----0------7p6--||
|
|                                    ~~~~
|   Q.    Q.    Q     +E   Q.    E  +Q.
|--------10--------|------10-----------------||
|-/12----------12--|-(12)-------12-(12)-----o||
|------------------|-------------------------||
|------------------|-------------------------||
|------------------|------------------------o||
|------------------|-------------------------||


    PM--------|   PM--------|     PM--------|   PM--------|
  E S S S S S S E S S S S S S   E S S S S S S E S S S S S S
|-----------------------------|-----------------------------|
|-----------------------------|-----------------------------|
|-----------------------------|-----------------------------|
|-----------------------------|-----------------------------|
|-2-------------2-------------|-2-------------2-------------|
|-0-0-0-0-0-0-0-0-0-0-0-0-0-0-|-0-0-0-0-0-0-0-0-0-0-0-0-0-0-|


    E E E E E E E E   E E E E E E E E  4x
||------------------|------------------||
||o-----------------|-----------------o||
||--4-4-4-4-4-4-4-4-|-3-3-3-3-3-3-3-3--||
||------------------|------------------||
||o-2-2-2-2-2-2-2-2-|-1-1-1-1-1-1-1-1-o||
||------------------|------------------||


      E E E Q   Q.     E E E E E E E E  4x
|-||-----------------|------------------||
|-||o----------------|-----------------o||
|-||--4-4-4S8--10----|-3-3-3-3-3-3-3-3--||
|-||-----------------|------------------||
|-||o-2-2-2S6---8----|-1-1-1-1-1-1-1-1-o||
|-||-----------------|------------------||


  E Q  E Q  E E   E E Q  Q  Q
|---------------|--------------*|
|---------------|--------------*|
|---------------|--------------*|
|-3----3----3---|---3----------*|
|-1-2--1-2--1-2-|-2-1-2--2-----*|
|---0----0----0-|-0---0--0-----*|


Duration Legend
---------------
W - whole; H - half; Q - quarter; E - 8th; S - 16th; T - 32nd; X - 64th; a - acciaccatura
+ - note tied to previous; . - note dotted; .. - note double dotted

Tablature Legend
----------------
 h   - hammer-on
 p   - pull-off
 b   - bend
 pb  - pre-bend
 r   - bend release (if no number after the r, then release immediately)
 /\  - slide into or out of (from/to "nowhere")
 s   - legato slide
 S   - shift slide
  - natural harmonic
[n]  - artificial harmonic
n(n) - tapped harmonic
 ~   - vibrato
 tr  - trill
 T   - tap
 TP  - trem. picking
 PM  - palm muting
\n/  - tremolo bar dip; n = amount to dip
 \n  - tremolo bar down
 n/  - tremolo bar up
/n\  - tremolo bar inverted dip
 =   - hold bend; also acts as connecting device for hammers/pulls
 <>  - volume swell (louder/softer)
 x   - on rhythm slash represents muted slash
 o   - on rhythm slash represents single note slash

Misc Legend
-----------
 |  - bar
||  - double bar
||o - repeat start
o|| - repeat end
*|  - double bar (ending)
 :  - bar (freetime)
 $  - Segno
 &  - Coda
Tempo markers -  = BPM(8/16=s8/s16), where s8 = swing 8ths, s16 = swing 16ths
Добавлено: 03.06.2013
Другие материалы по этой песне:
  • Аккорды и текст

Страница создана 03.06.2013
http://primanota.ru/sepultura/city-of-dis-chords.htm
Привет, Гость.
Предлагаем пройти революционный курс по гитаре.
Подарок от PrimaNota.Ru, забирай!