PrimaNota.ru - самый крупный в мире бесплатный архив песенных текстов, аккордов, табулатур и нот


Senses Fail - The Past Is Proof - бас-таба, видео

Регистрация Запомнить меня
Войти через:  Facebook Google Twitter Vk Yandex Mail.ru

Senses Fail - The Past Is Proof - бас-таба, видео

Печатать
Просмотров: 37
Уроки эстрадного вокала в Санкт-Петербурге
Senses Fail - The Past is Proof

Tabbed by: Ashy (XxThreeCheersxX)
E-mail: burdickash@gmail.com

Tuning: Drop D

This is one of the lesser known Senses Fail songs, but imo it's one of their best.  Unfortunately, 
finding HQ versions of it is hard.
  
Happy playing!

Verse
G|-----------------------------------------------------------------|
D|-----------------------------------------------------------------|
A|-2-2-2-2-2-2-2-2-2-2-2-2-2-2-2-2---------------------------------|
D|---------------------------------5-5-5-5-5-5-5-5-5-5-5-5-5-5-5-5-|

G|-----------------------------------------------------------------|
D|---------------------------------5-5-5-5-5-5-5-5-4-4-4-4-2-2-2-2-|
A|-2-2-2-2-2-2-2-2-4-4-4-4-5-5-5-5---------------------------------|
D|-----------------------------------------------------------------|

Interlude ("i'll never let a tie be my noose")
G|-----------------------------------------------------------------|
D|-----------------------------------------------------------------|
A|-----------------------------------------------------------------| x 2
D|-2-2-2-2-2-2-2-2-2-2-2-2-4-4-4-4-5-5-5-5-5-5-5-5-5-5-5-5-5-5-5-5-|

Play Verse and Interlude over again

Chorus
G|-----------------------------------------------------------------|
D|-----------------------------------------------------------------|
A|-----------------------------------------------------------------| x 2
D|-0-0-0-0-0-0-0-0-0-0-0-0-0-0-0-0-4-4-4-4-4-4-4-4-4-4-4-4-4-4-4-4-|

G|-----------------------------------------------------------------|
D|---------------------------------5-5-5-5-5-5-5-5-4-4-4-4---------|
A|-2-2-2-2-2-2-2-2-4-4-4-4-5-5-5-5-------------------------4-4-4-4-|
D|-----------------------------------------------------------------|

G|-----------------------------------------------------------------|
D|-----------------------------------------------------------------|
A|-5-5-5-5-5-5-5-5-5-5-5-5-5-5-5-5-------------------------0-0-0-0-|
D|---------------------------------4-4-4-4-4-4-4-4-5-5-5-5---------|

Verse x 2

Interlude Variation
G|-----------------------------------------------------------------|
D|-----------------------------------------------------------------|
A|-----------------------------------------------------------------| 
D|-2-2-2-2-2-2-2-2-2-2-2-2-4-4-4-4-5-5-5-5-5-5-5-5-5-5-5-5-5-5-5-5-|

G|-----------------------------------------------------------------|
D|-----------------------------------------------------------------|
A|-----------------------------------------------------------------| 
D|-2-2-2-2-2-2-2-2-2-2-2-2-4-4-4-4-5-5-5-5-5-5-5-5-5-5-5-5x--------|

Chorus

Breakdown
G|-------------------------------------------------------------------|
D|-------------------------------------------------------------------|
A|-------------------------------------------------------------------|
D|-0-0-0-0----0-0-0-0----0-0-2-4----0-0-0-0----0-0-0-0----0-0-2-4----|

G|------------------------------------------------------------------|
D|------------------------------------------------------------------|
A|------------------------------------------------------------------|
D|-0-0-0-0----0-0-0-0----0-0-2-4----7-7-7-7-7-7-7-7-7-7-7-7-5-5-5-5-|

G|-------------------------------------------------------------------|
D|-------------------------------------------------------------------|
A|-------------------------------------------------------------------|
D|-0-0-0-0----0-0-0-0----0-0-2-4----0-0-0-0----0-0-0-0----0-0-2-4----|

G|---------------------------------------------------------------|
D|---------------------------------------------------------------|
A|---------------------------------------------------------------|
D|-0-0-0-0----0-0-0-0----0-0-2-4----7--7x----7-7x--7x----8-8-8-8-|

Bridge
G|---------------------------------------------------------------------------|
D|---------------------------------------------------------------------------|
A|---------------------------------------------------------------------------| x 2
D|-9-9-9-9-9x----------------------------------------------------------------|

G|-----------------|
D|-----------------|
A|-----------------|
D|-0x--0x--0-0-0x--|

G|---------------------------------------------------------------------|
D|---------------------------------------------------------------------|
A|-2-2-2-2-2x----2-2x----2-2-2-2-2-2-0-0-0-0-0x----0-0x----0-0-0-0-0-0-|
D|---------------------------------------------------------------------|

G|---------------------------------------------------------------------|
D|---------------------------------------------------------------------|
A|---------------------------------------------------------------------|
D|-2-2-2-2-2x----2-2x----2-2-2-2-2-2-5-5-5-5-5z----5-5x----5-5-5-5-5-5-|

G|---------------------------------------------------------------------|
D|---------------------------------------------------------------------|
A|-2-2-2-2-2x----2-2x----2-2-2-2-2-2-0-0-0-0-0x----0-0x----0-0-0-0-0-0-|
D|---------------------------------------------------------------------|

G|-------------------------------------------------------------------|
D|-------------------------------------------------------------------|
A|-------------------------------------------------------------------|
D|-2-2-2-2-2x----2-2x----2-2-2-2-2-2-5-5-5-5-5-5-5-5-5-5-5-5-5-5-5-5-|

G|---------------------------------|
D|---------------------------------|
A|---------0-0-0-0-2-2-2-2-4-4-4-4-|
D|-5-5-5-5-------------------------|

Guitar Solo
G|-------------------------------------------------------------------|
D|-------------------------------------------------------------------|
A|-5-5-5-5-5-5-5-5-5-5-5-5-5-5-5-5-5---------------------------------| x 2
D|-----------------------------------4-4-4-4-4-4-4-4-4-4-4-4-4-4-4-4-|

G|-----------------------------------------------------------------|
D|---------------------------------5-5-5-5-5-5-5-5-4-4-4-4---------|
A|-2-2-2-2-2-2-2-2-4-4-4-4-5-5-5-5-------------------------4-4-4-4-|
D|-----------------------------------------------------------------|

G|-------------------------------------------------------------------|
D|-------------------------------------------------------------------|
A|-5-5-5-5-5-5-5-5-5-5-5-5-5-5-5-5-5---------------------------------| 
D|-----------------------------------4-4-4-4-4-4-4-4-4-4-4-4-4-4-4-4-|

Final Chorus
G|-----------------------------------------------------------------|
D|-----------------------------------------------------------------|
A|-----------------------------------------------------------------| x 2
D|-0-0-0-0-0-0-0-0-0-0-0-0-0-0-0-0-4-4-4-4-4-4-4-4-4-4-4-4-4-4-4-4-|

G|-----------------------------------------------------------------|
D|---------------------------------5-5-5-5-5-5-5-5-4-4-4-4---------|
A|-2-2-2-2-2-2-2-2-4-4-4-4-5-5-5-5-------------------------4-4-4-4-|
D|-----------------------------------------------------------------|

G|-------------------------------------------------------------------------------|
D|-------------------------------------------------------------------------------|
A|-5-5-5-5-5-5-5-5-5-5-5-5-5-5-5-5-----------------------------------------------|
D|---------------------------------4-4-4-4-4-4-4-4-5-5-5-5-7-7-7-7-9~------------|

| /  slide up
| \  slide down
| h  hammer-on
| p  pull-off
| ~  vibrato
| +  harmonic
| x  Mute note
===============================================================================
Добавлено: 19.02.2016
Другие материалы по этой песне:
  • Аккорды и текст

Страница создана 19.02.2016
http://primanota.ru/senses-fail/past-is-proof-chords.htm
Привет, Гость.
Предлагаем пройти революционный курс по гитаре.
Подарок от PrimaNota.Ru, забирай!