PrimaNota.ru - самый крупный в мире бесплатный архив песенных текстов, аккордов, табулатур и нот


Seether - Crash - текст песни, таба, видео

Регистрация Запомнить меня
Войти через:  Facebook Google Twitter Vk Yandex Mail.ru

Seether - Crash - текст песни, таба, видео

Печатать
Просмотров: 217
Уроки эстрадного вокала в Санкт-Петербурге
Авторы музыки: John Humphrey, Shaun Morgan, Dale Stewart
Авторы текста: Shaun Morgan
Seether - Crash

Drop C tuning (CGCFAD)

Intro:- Guitar 1

e|-----------------------------------------------------------|
H|-----------------------------------------------------------|
G|-----------------------------------------------------------|
D|-6/7-7-7-7/9-9-9-9-9-9-6-6-6-6/7-7-7-7/9-9-9-9-9-9-6-6-6-6-|
A|-0-0-0-0-0-0-0-0-0-0-0-0-0-0-0-0-0-0-0-0-0-0-0-0-0-0-0-0-0-|   (repeat that)
E|-x---------------------------x-----------------------------|


Verse: - Guitar 1

e|-----------------------------------------------------------|
H|-----------------------------------------------------------|
G|-----------------------------------------------------------|
D|-6/7-7-7-7/9-9-9-9-9-9-6-6-6-6/7-7-7-7/9-9-9-9-9-9-6-6-6-6-|
A|-0-0-0-0-0-0-0-0-0-0-0-0-0-0-0-0-0-0-0-0-0-0-0-0-0-0-0-0-0-|   (repeat that)
E|-x---------------------------x-----------------------------|


Chorus / instrumental: - Guitar 1

e|-x-x-x-x-x-x-x-x-x-x-x-x-x-x-x-x-|
H|-x-x-x-x-x-x-x-x-x-x-x-x-x-x-x-x-|
G|-9-9-9-9-9-9-9-9-9-9-9-9-9-9-9-9-|
D|-9-9-9-9-9-9-9-9-9-9-9-9-9-9-9-9-|
A|-7-7-7-7-7-7-7-7-6-6/7-7-7-7-7-7-|  (repeat that)
E|-7-7-7-7-7-7-7-7-6-6/7-7-7-7-7-7-|


Chorus / instrumental: - Guitar 2

e|------------------------------------------------------------|
H|-12-12-12-12-12-12-12-12-12-12-12-12-12-12-12-12-10-10-10---|.
G|------------------------------------------------------------|
D|-9--9--9--9--9--9--9--9--9--9--9--9--9--9--9--9--7--7--7----|..
A|------------------------------------------------------------|
E|------------------------------------------------------------|

e|------------------------------------------------------------------|
H|-...14-14-14-14-14-14-14-14-14-14-14-14-14-14/17-17-17-17-17\14---|..
G|------------------------------------------------------------------|
D|-...11-11-11-11-11-11-11-11-11-11-11-11-11-11/14-14-14-14-14\11---|..
A|------------------------------------------------------------------|
E|------------------------------------------------------------------|

e|----------------------------------------------------------------|
H|-...14-14-14\-12-12-12-12\10-10-10-10/17-17-17-17-17\14-14-14---|..
G|----------------------------------------------------------------|
D|-...11-11-11\-9--9--9--9-\7--7--7--7-/14-14-14-14-14\-11-11-11--|.
A|----------------------------------------------------------------|
E|----------------------------------------------------------------|

e|---------------------------------|
H|-...-14\-12-12-12-12\10-10-10-10-|
G|---------------------------------|
D|-...-11\9--9--9--9--\7--7--7--7--|
A|---------------------------------|
E|---------------------------------|


Bridge: - Guitar 1

e|---------------------------------|
H|---------------------------------|
G|---------------------------------|
D|-11--11-\-6-6-/-7-7-/-9-9--11-11-|
A|-9---9--\-4-4-/-5-5-/-7-7--9--9--|
E|-9---9--\-4-4-/-5-5-/-7-7--9--9--|

e|------------------------------------|
H|------------------------------------|
G|------------------------------------|
D|-11--11-\-6-6-/-7-7-/-9-9-\7/-11-11-|
A|-9---9--\-4-4-/-5-5-/-7-7-\5/-9--9--|
E|-9---9--\-4-4-/-5-5-/-7-7-\5/-9--9--|

e|---------------------------------|
H|---------------------------------|
G|---------------------------------|
D|-11--11-\-6-6-/-7-7-/-9-9--11-11-|
A|-9---9--\-4-4-/-5-5-/-7-7--9--9--|
E|-9---9--\-4-4-/-5-5-/-7-7--9--9--|

e|--------------------------------------|
H|--------------------------------------|
G|--------------------------------------|
D|-11--11-\-6-6-/-7-7-/-9-9--11-11-/-14-|
A|-9---9--\-4-4-/-5-5-/-7-7--9--9--/-12-|
E|-9---9--\-4-4-/-5-5-/-7-7--9--9--/-12-|


Instrumental: - Guitar 1

e|-----------------------------------------------------------|
H|-----------------------------------------------------------|
G|-----------------------------------------------------------|
D|-6/7-7-7-7/9-9-9-9-9-9-6-6-6-6/7-7-7-7/9-9-9-9-9-9-6-6-6-6-|
A|-0-0-0-0-0-0-0-0-0-0-0-0-0-0-0-0-0-0-0-0-0-0-0-0-0-0-0-0-0-|
E|-x---------------------------x-----------------------------|
Добавлено: 29.10.2014
Другие материалы по этой песне:

Страница создана 29.10.2014
http://primanota.ru/seether/crash-chords.htm
Привет, Гость.
Предлагаем пройти революционный курс по гитаре.
Подарок от PrimaNota.Ru, забирай!