PrimaNota.ru - самый крупный в мире бесплатный архив песенных текстов, аккордов, табулатур и нот


Seether - Keep The Dogs At Bay - текст песни, таба, видео

Регистрация Запомнить меня
Войти через:  Facebook Google Twitter Vk Yandex Mail.ru

Seether - Keep The Dogs At Bay - текст песни, таба, видео

Печатать
Просмотров: 260
Уроки эстрадного вокала в Санкт-Петербурге
Авторы музыки: John Humphrey, Shaun Morgan, Dale Stewart
Авторы текста: Shaun Morgan
-------------------------------------------------------------------------------
                             Keep The Dogs At Bay - Seether
-------------------------------------------------------------------------------
Tabbed by: edfen7
E-mail: edfen7@gmail.com

Tuning: Drop C


Intro / Pre Chorus
D|---------------------------------------------------------------------------|
A|-----13------13------15------15------13------13------15--15--15------------|
F|---14--14--14--14--14--14--14--14--14--14--14--14--14--14--14--------------|
C|-12------12------12------12------12------12------12------------------------|
G|---------------------------------------------------------------------------|
C|---------------------------------------------------------------------------|


Pre Verse / Pre Breakdown
D|---------------------------------------------------------------------------|
A|---------------------------------------------------------------------------|
F|---------------------------------------------------------------------------|
C|--12-10-0-0-12-12-10-0-0-12-12-10-0-0-12-12-10-12-13-----------------------|
G|--12-10-0-0-12-12-10-0-0-12-12-10-0-0-12-12-10-12-13-----------------------|
C|--12-10-0-0-12-12-10-0-0-12-12-10-0-0-12-12-10-12-13-----------------------|x 2


Chorus / Breakdown
D|---------------------------------------------------------------------------|
A|---------------------------------------------------------------------------|
F|--7--------------------7---------------------------------------------------|
C|--7----3----10----8----7----8----5----10-----------------------------------|
G|--5----3----10----8----5----8----5----10-----------------------------------|
C|--0----3----10----8----0----8----5----10-----------------------------------|



************************************
Добавлено: 03.12.2014
Другие материалы по этой песне:

Страница создана 05.08.2014
http://primanota.ru/seether/keep-dogs-at-bay-chords.htm
Привет, Гость.
Предлагаем пройти революционный курс по гитаре.
Подарок от PrimaNota.Ru, забирай!