PrimaNota.ru - самый крупный в мире бесплатный архив песенных текстов, аккордов, табулатур и нот


Seether - Country Song - текст песни, таба, бас-таба, видео

Регистрация Запомнить меня
Войти через:  Facebook Google Twitter Vk Yandex Mail.ru

Seether - Country Song - текст песни, таба, бас-таба, видео

Печатать
Просмотров: 961
Авторы: John Humphrey, Shaun Morgan, Troy McLawhorn, Dale Stewart

-------------------------------------------------------------------------------
                             Country Song - Seether
-------------------------------------------------------------------------------
Tabbed by: madjoker8
Email:madjoker8@gmail.com

Ok, well this is my first tab so bear with me on this one. I watched Dale and Shaun play 
and teach this themselves,
except the solo in the bridge/outro, so this should be almost 100%, if not sue me.
I haven't seen any other good tabs on this so i decided to help the people out. :P


Tuning:Whole Step down (DGCFAD)

Verse 1 (clean):

e|------3b----0-------0--3b-0-----3b---0-----------------------------------|
B|-------------0--3b---------------------0----3b--0------------------------|
G|--------------------------------------------------2--0-------------------|
D|-------------------------------------------------------------------------|
A|-------------------------------------------------------------------------|
E|----0-----0-----0------0-----0------0-------0-----0----------------------|
 |Guitar 1: Dale
e|-------------------------------------------------------------------------|
B|-------------------------------------------------------------------------|
G|------9------9------9------9-----9-----9-----9------9--------------------|
D|------x------x------x------x-----x-----x-----x------x--------------------|
A|------7------7------7------7-----7-----7-----7------7--------------------|
E|-------------------------------------------------------------------------|
  Guitar 2: Shaun




e|-------3b-----0-------0--3b-0--------------------------------------------|
B|----------------0--3b----------3--0--3h5-3-------------------------------|
G|--------------------------------------------4\2-0--2h3h4-----------------|
D|-------------------------------------------------------------------------|
A|-------------------------------------------------------------------------|
E|----0------0-------0-----0-----0-----------------------------------------|
 |Guitar 1:
e|-------------------------------------------------------------------------|
B|-------------------------------------------------------------------------|
G|-------9------9-----9----9-----------------------------------------------|
D|-------x------x-----x----x--------7-7-5-7----5---------------------------|
A|-------7------7-----7----7--------7-7-5-7----5---------------------------|
E|----------------------------------5-5-3-5----3---------------------------|
  Guitar 2:



e|------3b----0-------0--3b-0-----3b---0-----------------------------------|
B|-------------0--3b---------------------0----3b--0------------------------|
G|--------------------------------------------------2--0-------------------|
D|-------------------------------------------------------------------------|
A|-------------------------------------------------------------------------|
E|----0-----0-----0------0-----0------0-------------0----------------------|
 |Guitar 1: Dale
e|-------------------------------------------------------------------------|
B|-------------------------------------------------------------------------|
G|------9------9------9------9-----9-----9-----9------9--------------------|
D|------x------x------x------x-----x-----x-----x------x--------------------|
A|------7------7------7------7-----7-----7-----7------7--------------------|
E|-------------------------------------------------------------------------|
  Guitar 2: Shaun




e|-------3b-----0-------0--3b-0--------3h5-3-------------------------------|
B|----------------0--3b----------3--0---------3\2-0------------------------|
G|--------------------------------------------------2h3h4------------------|
D|-------------------------------------------------------------------------|
A|-------------------------------------------------------------------------|
E|----0------0-------0-----0-----0-----------------------------------------|
 |Guitar 1:
e|-------------------------------------------------------------------------|
B|-------------------------------------------------------------------------|
G|-------9------9-----9----9-----------------------------------------------|
D|-------x------x-----x----x--------7-7-5-7----5---------------------------|
A|-------7------7-----7----7--------7-7-5-7----5---------------------------|
E|----------------------------------5-5-3-5----3---------------------------|
  Guitar 2:


e|------3b----0-------0--3b-0-----3b---0-----------------------------------|
B|-------------0--3b---------------------0----3b--0------------------------|
G|--------------------------------------------------2--0-------------------|
D|-------------------------------------------------------------------------|
A|-------------------------------------------------------------------------|
E|----0-----0-----0------0-----0------0-------0-----0----------------------|
 |Guitar 1: Dale
e|-------------------------------------------------------------------------|
B|-------------------------------------------------------------------------|
G|------9------9------9------9-----9-----9-----9------9--------------------|
D|------9------9------9------9-----9-----9-----9------9--------------------|
A|------7------7------7------7-----7-----7-----7------7--------------------|
E|------7------7------7------7-----7-----7-----7------7--------------------|
  Guitar 2: Shaun




e|-------3b-----0-------0--3b-0--------------------------------------------|
B|----------------0--3b----------3--0--3h5-3-------------------------------|
G|--------------------------------------------4\2-0--2h3h4-----------------|
D|-------------------------------------------------------------------------|
A|-------------------------------------------------------------------------|
E|----0------0-------0-----0-----0-----------------------------------------|
 |Guitar 1:
e|-------------------------------------------------------------------------|
B|-------------------------------------------------------------------------|
G|-------9------9-----9----9-----------------------------------------------|
D|-------9------9-----9----9--------7-7-5-7----5---------------------------|
A|-------7------7-----7----7--------7-7-5-7----5---------------------------|
E|-------7------7-----7----7--------5-5-3-5----3---------------------------|
  Guitar 2:



e|------3b----0-------0--3b-0-----3b---0-----------------------------------|
B|-------------0--3b---------------------0----3b--0------------------------|
G|--------------------------------------------------2--0-------------------|
D|-------------------------------------------------------------------------|
A|-------------------------------------------------------------------------|
E|----0-----0-----0------0-----0------0-------------0----------------------|
 |Guitar 1: Dale
e|-------------------------------------------------------------------------|
B|-------------------------------------------------------------------------|
G|------9------9------9------9-----9-----9-----9------9--------------------|
D|------9------9------9------9-----9-----9-----9------9--------------------|
A|------7------7------7------7-----7-----7-----7------7--------------------|
E|------7------7------7------7-----7-----7-----7------7--------------------|
  Guitar 2: Shaun




e|-------3b-----0-------0--3b-0--------3h5-3-------------------------------|
B|----------------0--3b----------3--0---------3\2-0------------------------|
G|--------------------------------------------------2h3h4------------------|
D|-------------------------------------------------------------------------|
A|-------------------------------------------------------------------------|
E|----0------0-------0-----0-----0-----------------------------------------|
 |Guitar 1:
e|-------------------------------------------------------------------------|
B|-------------------------------------------------------------------------|
G|-------9------9-----9----9-----------------------------------------------|
D|-------9------9-----9----9--------7-7-5-7----5---------------------------|
A|-------7------7-----7----7--------7-7-5-7----5---------------------------|
E|-------7------7-----7----7--------5-5-3-5----3---------------------------|
  Guitar 2:



Pre-Chorus:



e|-------3----0------0--3-0-------3----0-----------------------------------|
B|--------------0--3---------------------0-3--0----------------------------|
G|----------------------------------------------2-0------------------------|
D|-------------------------------------------------------------------------|
A|-------------------------------------------------------------------------|
E|----3----3-------3----3-------5----5-----5----5--------------------------|
 |Guitar 1:
e|-------------------------------------------------------------------------|
B|-------------------------------------------------------------------------|
G|-------------------------------------------------------------------------|
D|------5----5----5----5----7----7----7----7-------------------------------|
A|------5----5----5----5----7----7----7----7-------------------------------|
E|------3----3----3----3----5----5----5----5-------------------------------|
  Guitar 2:



e|------3----0-----0--3-0--------------------------------------------------|
B|-------------0-3---------------------------------------------------------|
G|-------------------------------------------------------------------------|
D|-------------------------------------------------------------------------|
A|-------------------------------------------------------------------------|
E|----3----3-----3----3----------------------------------------------------|

e|-------------------------------------------------------------------------|
B|-------------------------------------------------------------------------|
G|-------------------------------------------------------------------------|
D|------5----5----5----5--7-7-5-7------------------------------------------|
A|------5----5----5----5--7-7-5-7------------------------------------------|
E|------3----3----3----3--5-5-3-5------5h6p5\3p0---------------------------|


From what i can tell there's only one guitar for the chorus.
Can't really tell how many times each chord is strummed so ill just tab it out

Chorus:

e|-------------------------------------------------------------------------|
B|-------------------------------------------------------------------------|
G|-----------------7----9--------------------------------------------------|
D|--2----5----7----7----9----2----5----7-----------------------------------|
A|--2----5----7----5----7----2----5----7-----------------------------------|
E|--0----3----5--------------0----3----5---5h6p5\3p0-----------------------|



Verse 2: same as verse 1
Chorus

Bridge
e|-------------------------------------------------------------------------|
B|-------------------------------------------------------------------------|
G|-------------------------------------------------------------------------|
D|---2-2------5--------5-----2-2------5-------5h7-7b-----------------------|
A|---2-2--5h7----7-5h7---7---2-2--5h7---7-5h7------------------------------|
E|---0-0---------------------0-0-------------------------------------------|

e|-------------------------------------------------------------------------|
B|-------------------------------------------------------------------------|
G|-------------------------------------------------------------------------|
D|---2-2------5--------5-----7-7-5-7---------------------------------------|
A|---2-2--5h7----7-5h7---7---7-7-5-7---------------------------------------|
E|---0-0---------------------5-5-3-5--5h6p5\3p0----------------------------|


e|-------------------------------------------------------------------------|
B|-------------------------------------------------------------------------|
G|-------------------------------------------------------------------------|
D|---2-2------5--------5-----2-2------5-------5h7-7b-----------------------|
A|---2-2--5h7----7-5h7---7---2-2--5h7---7-5h7------------------------------|
E|---0-0---------------------0-0-------------------------------------------|

e|-------------------------------------------------------------------------|
B|-------------------------------------------------------------------------|
G|-------------------------------------------------------------------------|
D|---2-2------5--------5-----7-7-5-7--5------------------------------------|
A|---2-2--5h7----7-5h7---7---7-7-5-7--5------------------------------------|
E|---0-0---------------------5-5-3-5--3------------------------------------|


Breakdown: again theyre strummed weird so ill just leave them here for you
e|-------------------------------------------------------------------------|
B|-------------------------------------------------------------------------|
G|----9------12-----14----17--16-------------------------------------------|
D|----x-------x------x-----x---x-------------------------------------------|
A|----7------10-----12----15--14-------------------------------------------|
E|-------------------------------------------------------------------------|

e|-------------------------------------------------------------------------|
B|-------------------------------------------------------------------------|
G|----9------12-----14---14-14-12-14---------------------------------------|
D|----x-------x------x----x--x--x--x---------------------------------------|
A|----7------10-----12---12-12-10-12---------------------------------------|
E|-------------------------------------------------------------------------|

Chorus x1
outro (just the bridge again) x1

well there you have it, my first tab for my favorite band's new single.
feedback is much appreciated so if you have any comments, questions or corrections feel 
free to email me. catch you guys later
************************************

| /   slide up
| \   slide down
| h   hammer-on
| p   pull-off
| ~   vibrato
| +   harmonic
| x   Mute note
| b   Bend
| pb  Pre-bend
| br  Bend release
| pbr Pre-bend release
| brb Bend release bend

************************************
Добавлено: 13.07.2013
Другие материалы по этой песне:

Страница создана 13.07.2013
http://primanota.ru/seether/country-song-chords.htm
Привет, Гость.
Предлагаем пройти революционный курс по гитаре.
Подарок от PrimaNota.Ru, забирай!