PrimaNota.ru - самый крупный в мире бесплатный архив песенных текстов, аккордов, табулатур и нот


Seether - No Resolution - текст песни, таба, видео

Регистрация Запомнить меня
Войти через:  Facebook Google Twitter Vk Yandex Mail.ru

Seether - No Resolution - текст песни, таба, видео

Печатать
Просмотров: 152
Авторы: John Humphrey, Shaun Morgan, Troy McLawhorn, Dale Stewart

-----------------------------------------------------------------------------
                                                   NO RESOLUTION - SEETHER
-----------------------------------------------------------------------------
THIS IS JUST THE RHYTHM GUITAR MEANING THE INTRO RIFF IS MISSING!
Tabbed by:DONNOVON PRITCHARD
Email:Dolympose@gmail.com

Tuning:Drop C

Order
Intro(play the Verse)
Chorusx2
Verse
Chorusx2
verse
Chorusx2
Bridge
Versex4
Chorusx4

Chorus-Distortion
e|--------------------------------------------------------------------------|
B|--------------------------------------------------------------------------|
G|------5-----5-------------------------------------------------------------|
D|---0--5--0--5--0--3--0--3--0--3--5--6-------------------------------------|
A|---0--3--0--3--0--3--0--3--0--3--5--6-------------------------------------|
E|---0-----0-----0--3--0--3--0--3--5--6-------------------------------------|

e|--------------------------------------------------------------------------|
B|--------------------------------------------------------------------------|
G|------5-----5-------------------------------------------------------------|
D|---0--5--0--5--0--3--0--3--0--6--5--3--0----------------------------------|
A|---0--3--0--3--0--3--0--3--0--6--5--3--0----------------------------------|
E|---0-----0-----0--3--0--3--0--6--5--3--0----------------------------------|

e|----------------------------------------------------------------------------|
B|----------------------------------------------------------------------------|
G|------5-----5---------------------------------------------------------------|
D|---0--5--0--5--0--3--0--3--0--3--5--6--5--5--5--5/6--6--6--6--6-------------|
A|---0--3--0--3--0--3--0--3--0--3--5--6--5--5--5--5/6--6--6--6--6-------------|
E|---0-----0-----0--3--0--3--0--3--5--6--5--5--5--5/6--6--6--6--6-------------|

Verses-Clean
e|--------------------------------------------------------------------------|
B|--------------------------------------------------------------------------|
G|--------------------------------------------------------------------------|
D|--------------------------------------------------------------------------|
A|---5--5--5/3--3/5---------------------------------------------------------|
E|---5--5--5/3--3/5---------------------------------------------------------|

Bridge-Distortion
e|--------------------------------------------------------------------------|
B|--------------------------------------------------------------------------|
G|---7--7--7/9\7--6--6--6/7\5--4--4--4/5/7----------------------------------|
D|--------------------------------------------------------------------------|
A|---5--5--5/7\5--4--4--4/5\3--2--2--2/3/5----------------------------------|
E|--------------------------------------------------------------------------|

The bridge goes LIKE this its not exact so ill v2 this when ive got a guitar on me.
                            ************************************

                                    | /   slide up
                                    | \   slide down
                                    | h   hammer-on
                                    | p   pull-off
                                    | ~   vibrato
                                    | +   harmonic
                                    | x   Mute note
                                    | b   Bend
                                    | pb  Pre-bend
                                    | br  Bend release
                                    | pbr Pre-bend release
                                    | brb Bend release bend

                             ************************************
Добавлено: 29.07.2013
Другие материалы по этой песне:
  • Аккорды и текст

Страница создана 29.07.2013
http://primanota.ru/seether/no-resolution-chords.htm
Привет, Гость.
Предлагаем пройти революционный курс по гитаре.
Подарок от PrimaNota.Ru, забирай!