PrimaNota.ru - самый крупный в мире бесплатный архив песенных текстов, аккордов, табулатур и нот


Scars On Broadway - Fucking - текст песни, таба, видео

Регистрация Запомнить меня
Войти через:  Facebook Google Twitter Vk Yandex Mail.ru

Scars On Broadway - Fucking - текст песни, таба, видео

Печатать
Просмотров: 223
 The first riff and 'there fucking, there fucking..                        
      S S S S S S S S S S S S S
D#||---------------------------
A#||---------------------------
F#||--8-8-8-8-8-------8-8-8-8-8
C#||--8-8-8-8-8-------8-8-8-8-8
G#||--6-6-6-6-6-------6-6-6-6-6
C#||---------------------------


  S S S S S S S S S S S S S S S S    S S S S S S S S S S S S S S S S  
----------------------------------|----------------------------------|
----------------------------------|----------------------------------|
--8-8-8-8-8-8-8-8-8-8-8-8-8-------|--8-8-8-8-8-------8-8-8-8-8-------|
--8-8-8-8-8-8-8-8-8-8-8-8-8-------|--8-8-8-8-8-------8-8-8-8-8-------|
--6-6-6-6-6-6-6-6-6-6-6-6-6-------|--6-6-6-6-6-------6-6-6-6-6-------|
----------------------------------|----------------------------------|


                                      Verse I part                             
  S S S S S S S S S S S S S S S S     E            E   E   E   E   E   E   E   
----------------------------------|-------------------------------------------|
----------------------------------|-------------------------------------------|
--8-8-8-8-8-8-8-8-8-8-8-8-8-------|-------------------------------------------|
--8-8-8-8-8-8-8-8-8-8-8-8-8-------|-------------------------------------------|
--6-6-6-6-6-6-6-6-6-6-6-6-6-------|--13-----------12--13--12--13--12--13--12--|
----------------------------------|--13-----------12--13--12--13--12--13--12--|


                                      Verse 2 part                             
   E   E   E   E   E   E   E   E      E   E   E   E   E   E   E   E   
----------------------------------|----------------------------------|
----------------------------------|--16--15--16--15--16--15--16--15--|
----------------------------------|--15--14--15--14--15--14--15--14--|
----------------------------------|----------------------------------|
--13--12--13--12--13--12--13--12--|--13--12--13--12--13--12--13--12--|
--13--12--13--12--13--12--13--12--|--13--12--13--12--13--12--13--12--|


                                     Chorus                    
   E   E   E   E   E   E   E   E     Q      E  E  E  E  E  E   
----------------------------------|---------------------------|
--16--15--16--15--16--15--16--15--|---------------------------|
--15--14--15--14--15--14--15--14--|---------------------------|
----------------------------------|---------------------------|
--13--12--13--12--13--12--13--12--|--7------8--8--8--8--8--8--|
--13--12--13--12--13--12--13--12--|--7------8--8--8--8--8--8--|


  E  E  E  E  E  E  E  E     Q    E  E  E  E  E  E     E  E  E  E  E  E  E  E   
--------------------------|-------------------------|--------------------------|
--------------------------|-------------------------|--------------------------|
--------------------------|-------------------------|--------------------------|
--------------------------|-------------------------|--------------------------|
--8--8--8--8--8--8--8--8--|--7----8--8--8--8--8--8--|--4--4--4--4--4--4--4--4--|
--8--8--8--8--8--8--8--8--|--7----8--8--8--8--8--8--|--4--4--4--4--4--4--4--4--|


-----||
-----||
-----||
-----||
-----||
-----||




Duration Legend
---------------
W - whole
H - half
Q - quarter
E - 8th
S - 16th
T - 32nd
X - 64th
. - note dotted
|-n-|  - n-tuplets
Добавлено: 26.04.2012
Другие материалы по этой песне:

Страница создана 28.03.2012
http://primanota.ru/scars-on-broadway/fucking-chords.htm
Привет, Гость.
Предлагаем пройти революционный курс по гитаре.
Подарок от PrimaNota.Ru, забирай!