PrimaNota.ru - самый крупный в мире бесплатный архив песенных текстов, аккордов, табулатур и нот


Scars On Broadway - Dictator - таба, видео

Регистрация Запомнить меня
Войти через:  Facebook Google Twitter Vk Yandex Mail.ru

Scars On Broadway - Dictator - таба, видео

Печатать
Просмотров: 173
Artist: Scars On Broadway
Album: upcoming EP/album
Song: Dictator (performed live at the Epicenter Festival on 2012-09-22)
Tuning: Drop C#
Tabbed by: Chili_Pat
PM = palm muting
-.- = and so on

Typical and catchy Scars On Broadway song. Only distorted guitar parts, with much 
highs, some boosted bass and a normal amount of mids. Repeat the stuff as much as necessary.

Intro:
D#|-------------------------------------------------------------------------|
Bb|-------------------------------------------------------------------------|
F#|-----12------10-------9-------7-------5-------7------10-------7----------|
C#|-----12------10-------9-------7-------5-------7------10-------7----------|
G#|-----10-------8-------7-------5-------3-------5-------8-------5----------|
C#|-0-0----0-0-0---0-0-0---0-0-0---0-0-0---0-0-0---0-0-0---0-0-0---0--------|
PM|-*-*----*-*-*---*-*-*---*-*-*---*-*-*---*-*-*---*-*-*---*-*-*------------|

Little Modified Riff (same as Intro only double-speed palm muting!)

Main Riff:
D#|-------------------------------------------------------------------------|
Bb|-------------------------------------------------------------------------|
F#|-----12------10-------9-------7-------5-------7------10-------7----------|
C#|-----12------10-------9-------7-------5-------7------10-------7----------|
G#|-----10-------8-------7-------5-------3-------5-------8-------5----------|
C#|-0-0----0-0-0---0-0-0---0-0-0---0-0-0---0-0-0---0-0-0---0-0-0---0--------|
PM|-*-*----*-*-*---*-*-*---*-*-*---*-*-*---*-*-*---*-*-*---*-*-*------------|

D#|-------------------------------------------------------------------------|
Bb|-------------------------------------------------------------------------|
F#|-----12------10-------9-------7------------------------------------------|
C#|-----12------10-------9-------7--8-8-8-8-8-8-8-8-------------------------|
G#|-----10-------8-------7-------5--8-8-8-8-8-8-8-8-------------------------|
C#|-0-0----0-0-0---0-0-0---0-0-0----8-8-8-8-8-8-8-8-------------------------|
PM|-*-*----*-*-*---*-*-*---*-*-*--------------------------------------------|

Bridge 2:
D#|-------------------------------------------------------------------------|
Bb|-------------------------------------------------------------------------|
F#|--------------------------------10--9-10--9-10--9-10--9-.-.-.------------|
C#|-12-11-12-11-12-11-12-11-.-.-.--12-11-12-11-12-11-12-11-.-.-.------------|
G#|-------------------------------------------------------------------------|
C#|-------------------------------------------------------------------------|
PM|-**-**-**-**-**-**-**-**-.-.-.--**-**-**-**-**-**-**-**-.-.-.------------|

Bridge 2:
D#|-------------------------------------------------------------------------|
Bb|-------------------------------------------------------------------------|
F#|-------------------------------------------------------------------------|
C#|-12-11-12-11-12-11-12~---------------------------------------------------|
G#|-12-11-12-11-12-11-12~---------------------------------------------------|
C#|-12-11-12-11-12-11-12~---------------------------------------------------|

Modified Main Riff (only the two main chords):
D#|-------------------------------------------------------------------------|
Bb|-------------------------------------------------------------------------|
F#|-7-7-7-7-7-7-7-7-7-7-7-7-7-7-7-7-----------------------------------------|
C#|-7-7-7-7-7-7-7-7-7-7-7-7-7-7-7-7--8-8-8-8-8-8-8-8-8-8-8-8-8-8-8-8--------|
G#|-5-5-5-5-5-5-5-5-5-5-5-5-5-5-5-5--8-8-8-8-8-8-8-8-8-8-8-8-8-8-8-8--------|
C#|----------------------------------8-8-8-8-8-8-8-8-8-8-8-8-8-8-8-8--------|

Listen to the live version and you will find out about the order of the parts and so on. 
Have fun and let's look together forward to the new Scars records!
Добавлено: 30.07.2013
Другие материалы по этой песне:

Страница создана 27.06.2013
http://primanota.ru/scars-on-broadway/dictator-chords.htm
Привет, Гость.
Предлагаем пройти революционный курс по гитаре.
Подарок от PrimaNota.Ru, забирай!