PrimaNota.ru - самый крупный в мире бесплатный архив песенных текстов, аккордов, табулатур и нот


Scars On Broadway - Universe - текст песни, таба, видео

Регистрация Запомнить меня
Войти через:  Facebook Google Twitter Vk Yandex Mail.ru

Scars On Broadway - Universe - текст песни, таба, видео

Печатать
Просмотров: 574
Уроки эстрадного вокала в Санкт-Петербурге
tabbed by: horandago
email: horandagoaudi@hotmail.com

I submitted the full tab now
drop C# tuning!

.........PM..........
---------------------|
---------------------|
---------------------|
---------------------|
---------------------|
-7777799101012121212-|

.....PM........
-------------------|
-------------------|
-------------------|
-------------------|
-------------------|
-55555779910101010-|

.......PM........
----------------|
----------------|
----------------|
----------------|
----------------|
-33333557799999-|

---000000-|
---000000-|
---000000-|
-22222222-|
-22222222-|
-22222222-|

----------------------|
----------------------|
----------------------|
-7-7-9-10-12-12-12-12-|
-7-7-9-10-12-12-12-12-|
-7-7-9-10-12-12-12-12-|

---------------------|
---------------------|
---------------------|
-5-5-7-9-10-10-10-10-|
-5-5-7-9-10-10-10-10-|
-5-5-7-9-10-10-10-10-|

-----------------|
-----------------|
-----------------|
-3-3-5-7-9-9-9-9-|
-3-3-5-7-9-9-9-9-|
-3-3-5-7-9-9-9-9-|

---000000-|
---000000-|
---000000-|
-22222222-|
-22222222-|
-22222222-|
Добавлено: 10.07.2012
Другие материалы по этой песне:

Страница создана 21.02.2012
http://primanota.ru/scars-on-broadway/universe-chords.htm
Привет, Гость.
Предлагаем пройти революционный курс по гитаре.
Подарок от PrimaNota.Ru, забирай!