PrimaNota.ru - самый крупный в мире бесплатный архив песенных текстов, аккордов, табулатур и нот


Satellite Stories - Sirens - таба, видео

Регистрация Запомнить меня
Войти через:  Facebook Google Twitter Vk Yandex Mail.ru

Satellite Stories - Sirens - таба, видео

Печатать
Просмотров: 289
"Sirens"  
Satellite Stories 
Phrases to Break the Ice
Tabbed by Jameson G. (jpghalio@yahoo.com)


Intro (Guitar 1)
** For strumming patterns listen to the song!
**Turn tone down for this part

|----5--12------------------------|
|-1--6--12------------------------|
|-2--7--12------------------------|
|-3-------------------------------|
|---------------------------------|
|---------------------------------| (Stop)

Guitar 2

|555-15-17-15|
|------------|
|------------|
|------------|
|------------|
|------------|

Chorus 1

Guitar 1


|----5--12-12-12-12---------------|
|-1--6--12-13-13-12---------------|
|-2--7--12-14-14-12---------------|
|-3-------------------------------|
|---------------------------------|
|---------------------------------|



Guitar 2 

|555-15-17-15--555-15-17-15-------|
|---------------------------------|
|---------------------------------|
|---------------------------------|
|---------------------------------|
|---------------------------------| 

|12-12-12--15-17-15--12-12-12-19-19-15|
|-------------------------------------|
|-------------------------------------|
|-------------------------------------|
|-------------------------------------|
|-------------------------------------|




Verse 1 (Guitar begins at: "They come as they go.")
** Listen for strum patterns (This is the part I'm most unsure about)

|-15--12--12--12------------------| 
|-13--13--12--13------------------| 
|---------12--14------------------| 
|---------------------------------| 
|---------------------------------| 
|---------------------------------| X2


Pre-Chorus 1 (You wake me up)
*Very, Very light chords


|1--5--3-----------------------5--3---|
|1--5--3----1------------------5--3---|
|2--5--4---2--2-----0-------4--5--4---|
|3--7--5--------------0----3---7--5---|
|3--7--5--0-------2-------3----7--5---|
|1--5--3---------3-------1-----5--3---|

"If we could fix everything..."
**If you listen close, you hear only two chords

Guitar 1

|------|
|-1--3-|
|-2--4-|
|-3--5-|
|------|
|------|

Guitar 2 (Come in quietly, then loud)
**Rapidly

|-12---|
|-12---|
|-12---|
|------|
|------|
|------|

Chorus 2
Verse 2 (Add some feedback!)
Pre-Chorus 2
Chorus 3


Breakdown/Bridge (Sirens! Silence!)

**It sounds like two high pitched chords played for a count each

|15-12-|
|13-13-|
|------|
|------|
|------|
|------|

"Sirens silence until time ends."

Guitar 1
** Play hard

|----5--12-12-12-12---------------|
|-1--6--12-13-13-12---------------|
|-2--7--12-14-14-12---------------|
|-3-------------------------------|
|---------------------------------|
|---------------------------------|

Guitar 2

|-20b--|
|------|
|------|
|------|
|------|
|------| **A lot ;)

** Then slide your pick down the down, add some feedback and hop into the final Chorus

Chorus 4

End on C

Questions or Comments? Email me jpghalio@yahoo.com!
Добавлено: 07.10.2013
Другие материалы по этой песне:

Страница создана 07.08.2013
http://primanota.ru/satellite-stories/sirens-chords.htm
Привет, Гость.
Предлагаем пройти революционный курс по гитаре.
Подарок от PrimaNota.Ru, забирай!