PrimaNota.ru - самый крупный в мире бесплатный архив песенных текстов, аккордов, табулатур и нот


Satellite Stories - A Great Escape - бас-таба, видео

Регистрация Запомнить меня
Войти через:  Facebook Google Twitter Vk Yandex Mail.ru

Satellite Stories - A Great Escape - бас-таба, видео

Печатать
Просмотров: 275
-------------------------------------------------------------------------------
                             A Great Escape - Satellite Stories
------------------------------------------------------------------------------- 

Tuning:EADG

Verse
G|-------------------------------------------------------|
D|-------------------------------------------------------|
A|-------------------------------------------------------|
E|---6~------9~------11~------7~------9~------4~------6~-|

G|-------------------------------------------------------|
D|-------------------------------------------------------|
A|-------------------------------------------------------|
E|---7~------9~------11~------7~------9~------4~---------|

Pre-Chorus
G|----------------------------------------------------|
D|-------8----------11------------13---------11h13----|
A|----------------------------------------13-------13-|
E|---6--------6/9-------9/11----9-----9-9-------------|

G|----------------------------------------------------|
D|-------9----------11-------------6--------6-----8---|
A|----------------------------------------------------|
E|---7--------7/9-------9\4-----4-----4--4-----6--==--|

G|----------------------------------------------------|
D|-------9----------11------------13---------11h13----|
A|----------------------------------------13-------13-|
E|---7--------7/9-------9/11----9-----9-9-------------|

G|----------------------------------------------------|
D|-------9----------11-------------6--------6-----8---|
A|----------------------------------------------------|
E|---7--------7/9-------9\4-----4-----4--4-----6--==--|


Chorus
G|--------------------------------------------------11-|
D|-------8----------11------------13----------11h13----|
A|-----------------------------------------13----------|
E|---6--------6/9-------9/11----9-----9--9-------------|

G|-----------------------------------------------------|
D|-------9----------11-------------6--------6-----8----|
A|-----------------------------------------------------|
E|---7--------7/9-------9\4-----4-----4--4-----6-------|

G|--------------------------------------------------11-|
D|-------9----------11------------13----------11h13----|
A|-----------------------------------------13----------|
E|---7--------7/9-------9/11----9-----9--9-------------|

G|-----------------------------------------------------|
D|-------9----------11-------------6--------6-----8----|
A|-----------------------------------------------------|
E|---7--------7/9-------9\4-----4-----4--4-----6-------|


Bridge
G|----------------------------------------------------------|
D|----------------------------------------------------------|
A|----------------------------------------------------------|
E|--11--11--11~---7--7--7~---6--6--6~---9--9--9~---4--4--4~-|


Verse Variation
G|-------------------------------------------------------|
D|-------------------------------------------------------|
A|-------------------------------------------------------|
E|---6~------9~------11~------7~------9~------4~------6~-|

G|-------------------------------------------------------|
D|-------------------------------------------------------|
A|------9------11----------------------------------------|
E|---7------9------0--3--5--7---0--5--0--3--0--2--0~-----|


Outro
G|--------------------------------------------------11----|
D|-------8----------11------------13----------11h13-------|
A|-----------------------------------------13-------------|
E|---6--------6/9-------9/11----9-----9--9----------------|

G|--------------------------------------------------------|
D|-------9----------11-------------6--------6-----8-------|
A|--------------------------------------------------------|
E|---7--------7/9-------9\4-----4-----4--4-----6----------|

G|------------------------------------11-13-11------------|
D|-------9----------11------------13-------------13-11----|
A|-----------------------------------------------------13-|
E|---7--------7/9-------9/11----9-------------------------|

G|--------------------------------------------------------|
D|-------9----------11-------------6--------6-----8-------|
A|--------------------------------------------------------|
E|---7--------7/9-------9\4-----4-----4--4-----6----------|

Order of Parts:
Verse  x1
Pre Chorus x2
Chorus x2
Verse  x1
Pre Chorus x2
Chorus x2
Verse  x1
Pre Chorus x2
Bridge x1
Verse Variation x1
Pre Chorus x3
Outro  x2



| /  slide up
| \  slide down
| h  hammer-on
| p  pull-off
| ~  vibrato
| +  harmonic
| x  Mute note
===============================================================================
Добавлено: 17.04.2015
Другие материалы по этой песне:
  • Аккорды и текст

Страница создана 17.04.2015
http://primanota.ru/satellite-stories/great-escape-chords.htm
Привет, Гость.
Предлагаем пройти революционный курс по гитаре.
Подарок от PrimaNota.Ru, забирай!