PrimaNota.ru - самый крупный в мире бесплатный архив песенных текстов, аккордов, табулатур и нот


Satanic Warmaster - The Burning Eyes Of The Werewolf - текст песни, таба, видео

Регистрация Запомнить меня
Войти через:  Facebook Google Twitter Vk Yandex Mail.ru

Satanic Warmaster - The Burning Eyes Of The Werewolf - текст песни, таба, видео

Печатать
Просмотров: 227
SATANIC WARMASTER – THE BURNING EYES OF THE WEREWOLF

CONTAC: CHEMOTHERAPY@HOTMAIL.COM.AR

Intro

Guitarra 1
e|-------------------|-------------------|------0-----------0|--------3-----|
B|---------0---------|--------0----------|------------1------|-----3--------|
G|------2----2-------|------2---2--------|----2-----2----2---|---0----------|
D|----2---------2----|----2-------2------|--3-----3----3-----|--------------|
A|--0----------------|--3----------------|-------------------|--------------|
E|-------------------|-------------------|-------------------|--------------|


Riff 1
Guitarra 1
e|-------------------|------------------|-------------------|---------------|
B|-------------------|------------------|-------------------|---------------|
G|-------------------|------------------|-------------------|---------------|
D|-9999-10-999---9---|--999--5555--54444|-54444-5555-109-10-|12-------------|
A|-7777-7--777--10---|--777--7777--55555|-55555—7777-101010—-10-------------|
E|-------------------|------------------|-------------------|---------------|

Guitarra 2
e|-------------------|------------------|-------------------|---------------|
B|-------------------|------------------|-------------------|---------------|
G|-------------------|------------------|-------------------|---------------|
D|-------------------|------------------|-------------------|---------------|
A|-------------------|------------------|-------------------|---------------|
E|-------------------|------------------|-------------------|---------------|

Guitarra 1
e|-------------------|------------------|-------------------|---------------|
B|-------------------|------------------|-------------------|---------------|
G|-------------------|------------------|-------------------|---------------|
D|-9999-10-999---9---|--999--5555--54444|-54444-2222-555-444|---------------|
A|-7777-7--777--10---|--777--7777--55555|-55555—3333-777-555----------------|
E|-------------------|------------------|-------------------|---------------|


Guitarra 2
e|-------------------|------------------|-------------------|---------------|
B|-------------------|------------------|-------------------|---------------|
G|-------------------|------------------|-------------------|---------------|
D|-------------------|------------------|------------555-444|---------------|
A|-------------------|------------------|------------777-555|---------------|
E|-------------------|------------------|-------------------|---------------|

Guitarra 1
e|-------------------|------------------|-------------------|---------------|
B|-------------------|------------------|-------------------|---------------|
G|-------------------|------------------|-------------------|---------------|
D|-9999-10-999---9---|--999--5555--54444|-54444-5555-109-10-|12-------------|
A|-7777-7--777--10---|--777--7777--55555|-55555—7777-101010—-10-------------|
E|-------------------|------------------|-------------------|---------------|


Guitarra 2
e|-------------------|------------------|-------------------|----------------|
B|-------------------|------------------|-------------------|----------------|
G|-------------------|------------------|-------------------|----------------|
D-9999-10-999---9---|--999--5555--54444|-54444-5555-109-10-|12---------------|
A|-7777-7--777--10---|--777--7777--55555|-55555—7777-0-0—-0---0--------------|
E|-------------------|------------------|-------------------|----------------|


Guitarra 1
e|-------------------|------------------|-------------------|---------------|
B|-------------------|------------------|-------------------|---------------|
G|-------------------|------------------|-------------------|---------------|
D|-9999-10-999---9---|--999--5555--54444|-54444-2222-555-444|---------------|
A--7777-7--777--10---|--777--7777--55555|-55555—3333-777-555----------------|
E|-------------------|------------------|-------------------|---------------|


Guitarra 2
e|-------------------|------------------|-------------------|---------------|
B|-------------------|------------------|-------------------|---------------|
G|-------------------|------------------|-------------------|---------------|
D|-9999-10-999---9---|--999--5555--54444|-54444-2222-555-444|---------------|
A|-7777-7--777--10---|--777--7777--55555|-55555—3333-777-555----------------|
E|-------------------|------------------|-------------------|---------------|


Riff 2

Guitarra 1
e|-------------------|------------------|-------------------|----------------|
B|-------------------|------------------|-------------------|----------------|
G|-------------------|------------------|-------------------|----------------|
D|-99997777555555555-|-44444---55442244-|-99997777555555555-|-44444-77554455-|
A|-77777777777777777-|-55555---33333333-|-77777777777777777-|-55555—55555555-|
E|-------------------|------------------|-------------------|----------------|


Guitarra 2
e|-------------------|------------------|-------------------|---------------|
B|-------------------|------------------|-------------------|---------------|
G|-------------------|------------------|-------------------|---------------|
D|-99997777555555555-|-444444222222-----|-99997777555555555-|-44444444444---|
A|-77777777777777777-|-555555333333-----|-77777777777777777-|-55555555555---|
E|-------------------|------------------|-------------------|---------------|


Riff 3

Guitarra 1
e|-------------------|------------------|-------------------|---------------|
B|-------------------|------------------|-------------------|---------------|
G|-------------------|------------------|-------------------|---------------|
D|-444555444555------|--777555444555----|--777777555555-----|--2222222222---|
A|-222222222222------|--333333333333----|--555555555555-----|--4444444444---|
E|-------------------|------------------|-------------------|---------------|


Guitarra 2
e|-------------------|------------------|-------------------|---------------|
B|-------------------|------------------|-------------------|---------------|
G|-------------------|------------------|-------------------|---------------|
D|-444444444444------|--5555555555555---|---777777777777----|--22222222222--|
A|-222222222222------|--3333333333333---|---555555555555----|--44444444444--|
E|-------------------|------------------|-------------------|---------------|
Добавлено: 25.04.2012
Другие материалы по этой песне:

Страница создана 25.04.2012
http://primanota.ru/satanic-warmaster/the-burning-eyes-of-the-werewolf-chords.htm
Привет, Гость.
Предлагаем пройти революционный курс по гитаре.
Подарок от PrimaNota.Ru, забирай!