PrimaNota.ru - самый крупный в мире бесплатный архив песенных текстов, аккордов, табулатур и нот


Saosin - Deep Down - текст песни, таба, видео

Регистрация Запомнить меня
Войти через:  Facebook Google Twitter Vk Yandex Mail.ru

Saosin - Deep Down - текст песни, таба, видео

Печатать
Просмотров: 137
---------------------------------------------------------------
	              Deep Down - Saosin
---------------------------------------------------------------
Tabbed by: Kristyn Lee

Email: spot_the_village_loony_836@hotmail.com

Tuning: Drop D

Intro/verse
e|-------------------------------------|
B|-------------------------------------|
G|----------5555555--------------------|
D|--7777777-7777777-5555555-77777777---|
A|--5555555-5555555-8888888-88888888---|
D|-------------------------------------|

e|-------------------------------------|
B|-------------------------------------|
G|----------5555555--------------------|
D|--7777777-7777777-777777-3333333-----|
A|--5555555-5555555-555555-1111111-----|
D|-------------------------------------|


e|------------------|
B|------------------|
G|---2222-----------|
D|--------3p2-------|
A|------------3-----|
D|------------------|

Chorus
e|------------------------------------------------|
B|------------------------------------------------|
G|--7777777-1010101010101010-3333333-----5555-----|
D|--7777777-1010101010101010-3333333-333-5555-----|
A|--5555555-8-8-8-8-8-8-8-8--1111111-333-3333-----|
D|-----------------------------------333----------|


e|---------------------------------------|
B|---------------------------------------|
G|--7777777-1010101010101010-333333333~--|
D|--7777777-1010101010101010-333333333~--|
A|--5555555-8-8-8-8-8-8-8-8--111111111~--|
D|---------------------------------------|

0:55
riff goes something like this, play around with it. 
e|---------------------------------------------------------|
B|---------------------------------------------------------|
G|----9-9997p5-----------------------------------3-5p3p2---|
D|--7----------8-7p5h7-7-7p5\3-3-5-3/7-5p3-3h5p3-----------|
A|---------------------------------------------------------|
D|---------------------------------------------------------|

2nd verse
e|-------------------------------------|
B|-------------------------------------|
G|-------------------------------------|
D|--7-7-7-7-7-7-7-7-1010101010101010---|
A|--5-5-5-5-5-5-5-5-8-8-8-8-8-8-8-8----|
D|-------------------------------------|
    .   .   .   .   .   .   .   .
repeat this riff
e|---------------------------------------------------------|
B|---------------------------------------------------------|
G|----9-9997p5-----------------------------------3-5p3p2---|
D|--7----------8-7p5h7-7-7p5\3-3-5-3/7-5p3-3h5p3-----------|
A|---------------------------------------------------------|
D|---------------------------------------------------------|

"do you ever get the feeling..."
e|-------------------------------------------|
B|-----------------------------1010101010----|
G|---101010101010101010-999999---------------|x4
D|-------------------------------------------|
A|-------------------------------------------|
D|-------------------------------------------|

Repeat chorus x2

e|--------------------------------------|
B|--------------------------------------|
G|---------3~------5h7p5----------------|
D|--0~-0~--3~--0~--------5~----5/8~-----|
A|--0~-0~--1~--0~--------5~--5-5/8~-----|
D|--0~-0~------0~--------5~--5-5/8~-----|
                             .
e|----------------------------------|
B|----------------------------------|
G|---------3~------5h7p5------------|
D|--0~-0~--3~--0~----------5/8~-----|
A|--0~-0~--1~--0~----------5/8~-----|
D|--0~-0~------0~----------5/8~-----|
                             
2:11
e|--13----------15---13-------------|
B|------13---10---------13----------|
G|----------------------------------|x2
D|----------------------------------|
A|----------------------------------|
D|----------------------------------|

e|------10-12-13-------------5*----5*---|
B|--10------------13-11p10------5*------|
G|--------------------------------------|
D|--------------------------------------|
A|--------------------------------------|
D|--------------------------------------|

"wash it away..."
e|------------------|
B|------------------|
G|---2222-----------|
D|--------3p2-------|
A|------------3-----|
D|------------------|

Repeat chorus x2


| .  palm mute
| /  slide up
| \  slide down
| h  hammer-on
| p  pull-off
| ~  vibrato
| +  harmonic
| x  Mute note
============================================================
Добавлено: 11.08.2013
Другие материалы по этой песне:
  • Аккорды и текст

Страница создана 11.08.2013
http://primanota.ru/saosin/deep-down-chords.htm
Привет, Гость.
Предлагаем пройти революционный курс по гитаре.
Подарок от PrimaNota.Ru, забирай!