PrimaNota.ru - самый крупный в мире бесплатный архив песенных текстов, аккордов, табулатур и нот


Saosin - Its Far Better To Learn - текст песни, таба, бас-таба, видео

Регистрация Запомнить меня
Войти через:  Facebook Google Twitter Vk Yandex Mail.ru

Saosin - Its Far Better To Learn - текст песни, таба, бас-таба, видео

Печатать
Просмотров: 152
okay so the other version before is pretty goddamn good. but it's missing one good part
the singer says "i believe in nothing." it's this pull-off or tapping part or something.
the part i put in here is not what the guitar plays, but it sounds AMAZING and it 
the song perfectly.

Saosin- It's Far better To learn
Tuning- D (DADGBe)

                            --INTRO--

Guitar 1-
------------------5------5------8-----8----------------5------5--|
-6---6-5---6-5-6------6----5-6----5-6---6--5----6-5-6-------6----|
---7-----7----------7-------------------------7-----------7------|
-----------------------------------------------------------------|
-----------------------------------------------------------------|
-----------------------------------------------------------------|

Guitar 2 play same thing but come in at a different time

Then Both Guitars Play-

----------------------------------------|
----------------------------------------|
-----------------------<5>--------------|
--0-0--------000-----------<5>----------|
--0-0--------000--------------<5>-------|
--0-0--------000------------------<5>---|
             ...


                            --VERSE--


Guitar 1 Play Intro Part

Guitar 2-

--------------------------|
--------------------------|
--------------------------|
---0~------8~-----10~-----|
---0~------8~-----10~-----|
---0~------8~-----10~-----|

                          --PRECHORUS--

Guitar 1

------------------------------------------------------------|
-10-10101010-10101010-1010---10--10101010--10-101010--/-----|
-10-10101010-10101010-1010---10--10101010--10-101010--/-----|
------------------------------------------------------------|
------------------------------------------------------------|
------------------------------------------------------------|


                            --CHORUS--

Both Guitars

------------------------------------------------------------------------------|
------------------------------------------------------------------------------|
------------------------------------------------------------------------------|
---0--------8---------10---------------0--------8--------10--------5----------|
---0--X16---8--X16----10--X16----------0--X16---8--X16---10--X16---5--X16-----|
---0--------8---------10---------------0--------8--------10--------5----------|


                            --VERSE 2--


Add This To The Other Parts (Guitar 3)-

---------------------------------------------------------------|
---------------------------------------------------------------|
-------------------2------2-------5--------------2-------2-----|
--3---3-2----3-2-3------3----3-2----3-2----3-2-3-------3-------|
----5-----5-----------5-----------------5------------5---------|
---------------------------------------------------------------|


                          --PRECHORUS 2--


Guitar 1 Play the same thing

Guitar 2 Play-

--------------------------------------------------|
--------------------------------------------------|
--------------------------------------------------|
--00---00----00~--------3-2-0---------------------|
--00---00----00~--------------------3--5----------|
--00---00----00~---------------3--5---------------|

                            --CHORUS 2--


Play Same Thing But Play it x2


                             --BRIDGE--

Guitar 1--

-10t13t17-10t13t17-10t13t17-10t13t17-(4x)-10t13t18-10t13t18-10t13t18-10t13t18-(2x)---  /
-------------------------------------------------------------------------------------  /
-----------------------------------------------------------------------------------|\  /
-------------------------------------------------------------------------------------  / \
-------------------------------------------------------------------------------------  / 
\
-------------------------------------------------------------------------------------  / 
 \


\
-10t13t20-10t13t20-10t13t20-10t13t20-----10t13t22-10t13t22-10t13t22-10t13t22-|  / 2x
-----------------------------------------------------------------------------|  /
-----------------------------------------------------------------------------|  /
-----------------------------------------------------------------------------|  /
-----------------------------------------------------------------------------|  /
-----------------------------------------------------------------------------|  /

Guitar 2--
------------------------------------------------------|
------------------------------------------------------|
------------------------------------------------------|
------------3----3--------3---------3-----3-----------|
------------------------------------------------------|
---00000000----0----00000----000000----0--------------|
   ........    .    .....    ......    .

-------------------------------------------------------|
-------------------------------------------------------|
-------------------------------------------------------|
-----------3-------------2----3--------3---------2---3-|
-------------------------------------------------------|
--0000000-----0000000000----0----00000----000000---0---|
  .......     ..........    .    .....    ......   .


----------------------------------------------------------------|
----------------------------------------------------------------|
----------------------------------------------------------------|
-------------------------2---3------------------2--3------------|
----------------1111111----1----11111---33333333--3---333333----|
---0000000000---------------------------------------------------|
   ..........   .......    .    .....   ........  .   ......

Part 2

Both guitars--
------------------------------------------------------------------|
------------------------------------------------------------------|
------------------------------------------------------------------|
----------23-------23-----23---X2------------23-------23------23--|
-----1---------555----3-3------------3-1-3-5------555-----3-3-----|
-00----0-----0----------------------------------0-----------------|
 ..    .     .  .     . .            . . . .    .  .      . .

---------------------|
--10-X13-----/-------|
--10---------/-------|
---------------------|
---------------------|
---------------------|

                               --CHORUS--

                                --OUTRO--

Guitar 1-


----------------------------------------|
----------------------------------------|
----------------------------------------|
-----------23-------23-----23---X4------|
-----1----------555----3-3--------------|
--00----0-----0-------------------------|
  ..    .     .  .     . .

Guitar 2-

---------------------------------------------|
---10--X32------13-X16----8-X16----10/-------|
---10------------------------------10/-------|
---------------------------------------------|
---------------------------------------------|
---------------------------------------------|

Randomly At the end of the song-

---------------------|
---------------------|
---------------------|
---------9-10-9-7-9--|
--3-5-5--------------|
---------------------|
Добавлено: 09.05.2012
Другие материалы по этой песне:

Страница создана 06.03.2012
http://primanota.ru/saosin/its-far-better-to-learn-chords.htm
Привет, Гость.
Предлагаем пройти революционный курс по гитаре.
Подарок от PrimaNota.Ru, забирай!