PrimaNota.ru - самый крупный в мире бесплатный архив песенных текстов, аккордов, табулатур и нот


Saltatio Mortis - Ecce Gratum - таба, видео

Регистрация Запомнить меня
Войти через:  Facebook Google Twitter Vk Yandex Mail.ru

Saltatio Mortis - Ecce Gratum - таба, видео

Печатать
Просмотров: 150
-------------------------------------------------------------------------------
                             ECCE GRATUM - Saltatio Mortis
-------------------------------------------------------------------------------
Tabbed by: eLMariachi88

Tuning: Standart


Bagpipe:

play this twice:
e|--------------------------------------------------------------------------|
B|-3--5--6--5--6--3--5--3-----3--6-5-3---3-5--------------------------------|
G|-------------------------5-----------5------------------------------------|
D|--------------------------------------------------------------------------|
A|--------------------------------------------------------------------------|
E|--------------------------------------------------------------------------|

then

e|-3--5--6--3--5-5-3-3-5p3-------5p3----------------------3-----------------|
B|-------------------------h6p5-3-----h6p5-3-----3--5--6----h6p5-3----------|
G|--------------------------------------------5-----------------------------|
D|--------------------------------------------------------------------------|
A|--------------------------------------------------------------------------|
E|--------------------------------------------------------------------------|

If you like, play Dm like this: 

e|-0-1-0-1-0-|
B|-3-3-3-3-3-|
G|-2-2-2-2-2-|
D|-----------|
A|-----------|
E|-----------|


Listen to the Song to get the Rythm!


Dm
Ecce gratum et optatum
F           C
ver reducit gaudia:


Dm
purpuratum floret pratum,
F           C
sol serenat omnia.
Gm             
iam iam cedant tristia!
Am
estas redit nunc recedit,
G      Dm
hiemis sevitia.


lam liquescit et descrescit
grando, nix et cetera;
bruma fugit, et iam sugit
veris tellus ubera.
illi mens est misera,
qui nec vivit nec lascivit
sub estatis dextera!

Gloriantur et letantur
in melle dulcedinis,
qui conantur, ut utantur
premio Cupidinis.
simus iussu Cypridis gloriantes et letantes
pares esse Paridis!

************************************

| /   slide up
| \   slide down
| h   hammer-on
| p   pull-off
| ~   vibrato
| +   harmonic
| x   Mute note
| b   Bend
| pb  Pre-bend
| br  Bend release
| pbr Pre-bend release
| brb Bend release bend

************************************
Добавлено: 21.11.2013
Другие материалы по этой песне:
  • Аккорды и текст

Страница создана 21.11.2013
http://primanota.ru/saltatio-mortis/ecce-gratum-chords.htm
Привет, Гость.
Предлагаем пройти революционный курс по гитаре.
Подарок от PrimaNota.Ru, забирай!