PrimaNota.ru - самый крупный в мире бесплатный архив песенных текстов, аккордов, табулатур и нот


Saltatio Mortis - Frueher War Alles Besser - таба, видео

Регистрация Запомнить меня
Войти через:  Facebook Google Twitter Vk Yandex Mail.ru

Saltatio Mortis - Frueher War Alles Besser - таба, видео

Печатать
Просмотров: 84
Уроки эстрадного вокала в Санкт-Петербурге
-------------------------------------------------------------------------------
                             Früher war alles besser - Saltatio Mortis
-------------------------------------------------------------------------------
Tabbed by: Feuerfinger
E-mail: phoenix-tj@gmx.net

Tuning: Standard

Nur einige meiner Notizen, nicht vollkommen korrekt, aber hoffentlich trotzdem nützlich :)
Just some of my notes, tab isn't completely correct, but it may be useful :)


Intro + Chorus:

E |--2-----2--2----|--3--------2--------0-------|--2-----------2-----2-------|--2--2--2--2----|
B |--3-----3--3----|--3--------3--------3-------|--3-----------3-----3-------|--3--3--3--3----|
G |--2-----2--2----|--2--------2--------2-------|--2-----------2-----2-------|--2--2--2--2----|
D |--0-----0--0----|--0--------0--------0-------|--0-----------0-----0-------|--0--0--0--0----|
A |----------------|----------------------------|----------------------------|----------------|
E |----------------|----------------------------|----------------------------|----------------|


--2-----2--2----|--3--------2--------0-------|--0-----------0-----0-------|
--3-----3--3----|--3--------3--------3-------|--2-----------2-----2-------|
--2-----2--2----|--2--------2--------2-------|--2-----------2-----2-------|
--0-----0--0----|--0--------0--------0-------|--2-----------2-----2-------|
----------------|----------------------------|--0-----------0-----0-------|
----------------|----------------------------|----------------------------|


--0--0--0--0----|--3-----------3-----3-------|--3-----3--3----|
--2--2--2--2----|--0-----------0-----0-------|--0-----0--0----|
--2--2--2--2----|--0-----------0-----0-------|--0-----0--0----|
--2--2--2--2----|--0-----------0-----0-------|--0-----0--0----|
--0--0--0--0----|--2-----------2-----2-------|--2-----2--2----|
----------------|--3-----------3-----3-------|--3-----3--3----|


--2-----------2-----2-------|--2-----2--2----|--2-----------2-----2-------|
--3-----------3-----3-------|--3-----3--3----|--3-----------3-----3-------|
--4-----------4-----4-------|--4-----4--4----|--2-----------2-----2-------|
--4-----------4-----4-------|--4-----4--4----|--0-----------0-----0-------|
--2-----------2-----2-------|--2-----2--2----|----------------------------|
--2-----------2-----2-------|--2-----2--2----|----------------------------|


--3--------2--------0-------|--0----||
--3--------3--------3-------|--2----||
--2--------2--------2-------|--2----||
--0--------0--------0-------|--2----||
----------------------------|--0----||
----------------------------|-------||




Bagpipe Solo:

E |--10-12-10L-----|--10-15-14-12---|--7-------|--10-12-10L-----|
B |----------------|----------------|----------|----------------|
G |----------------|----------------|----------|----------------|
D |----------------|----------------|----------|----------------|
A |----------------|----------------|----------|----------------|
E |----------------|----------------|----------|----------------|


--10-15-14-12---|--17------|--15-14-15L-----|--15-17-15-14---|--14------|
----------------|----------|----------------|----------------|----------|
----------------|----------|----------------|----------------|----------|
----------------|----------|----------------|----------------|----------|
----------------|----------|----------------|----------------|----------|
----------------|----------|----------------|----------------|----------|


--10-12-14---14-|--15-14---|--12---|
----------------|----------|-------|
----------------|----------|-------|
----------------|----------|-------|
----------------|----------|-------|
----------------|----------|-------|
Добавлено: 15.07.2015
Другие материалы по этой песне:
  • Аккорды и текст

Страница создана 15.07.2015
http://primanota.ru/saltatio-mortis/frueher-war-alles-besser-chords.htm
Привет, Гость.
Предлагаем пройти революционный курс по гитаре.
Подарок от PrimaNota.Ru, забирай!