PrimaNota.ru - самый крупный в мире бесплатный архив песенных текстов, аккордов, табулатур и нот


Saltatio Mortis - Abschiedsmelodie - аккорды и текст, видео

Регистрация Запомнить меня
Войти через:  Facebook Google Twitter Vk Yandex Mail.ru

Saltatio Mortis - Abschiedsmelodie - аккорды и текст, видео

Печатать
Просмотров: 165
Уроки эстрадного вокала в Санкт-Петербурге
Abschiedsmelodie
Saltatio Mortis
So, das hier wird mein erster Versuch was von dem was ich so spiel aufzuschreiben, wenn also jemand
Verbesserungsvorschläge hat oder eine Frage, raus damit ;)

Das hier ist glaube ich die Grundlage des Intros:

E |-----------------------------------------------------------|
B |------------------------0---------------------------0------|
G |--------4-----------------------------4-4---------2---2----|
D |------5---------------2-------------4-----------2-------2--|
A |----5---------------2-----------2-----------0-------------0|
E |3-----------3-2-0------------------------------------------|

Mit diesem hier am Ende des Intros:

E |-----------------------------------------------------------|
B |------------------------0---------------3-2----------------|
G |--------4-----------------------------4-----4--------------|
D |------5---------------2-------------4---------4------------|
A |----5---------------2-----------2---------------2----------|
E |3-----------3-2-0------------------------------------------|

Und das hier kann man so ziemlich die ganzen Strophen durch spielen:

E |-----------------------------------------------------------|
B |------------------------0---------------------------0------|
G |--------4-----------------0-----------4-4---------2---2----|
D |------5---------------2-------2-----4-----------2-------2--|
A |----5---------------2-------2---2-----------0-------------0|
E |3-----------3-2-0------------------------------------------|

Statt Asus2 kann man auch einfach A spielen wenns einfacher ist ;)


G              G/F#  Em                   Bm      Asus2
Das Licht ist aus,   Es ist Zeit zu gehen.
          G           G/F#   Em    Bm            Asus2
Wir haben stundenlang geredet:     Ohne zu versteh'n.
    G            G/F#  Em          Bm             Asus2
Wir haben viel gesprochen und doch nichts gesagt.
     G              G/F#  Em
Noch soviel, was ich fragen wollte,
     Bm              Asus2
Doch hab nicht gewagt, 
G       G/F#  Em            Bm       
einzugestehen'n, das du mir fehlst.

    G         G/F#   Em        Bm          Asus2
Ich bin allein,        niemand hört mir zu.
             G                       G/F#  Em    Bm               Asus2
Der Mond ist jetzt mein bester Freund.       Ich finde keine Ruh'.
   G        G/F#  Em            Bm            Asus2
In mir lodert das Feuer unserer Leidenschaft,
              G        G/F#  Em
verbrennt das Eis meiner Fassade,
     Bm            Asus2
Doch hab ich nicht geschafft, 
G       G/F#  Em            Bm       
einzugestehen'n, das du mir fehlst.

       G         G/F#  Em                     Bm     
Unsere Zeit war wie Musik, unsere liebe Symphonie.
            Asus2        G
Ich will vergessen unser Lied.
G   G/F#  Em                    Bm
Doch ich weiß, gelingen wird es nie.
           Asus2           G     G/F#   Em                Bm
Sie ist vorbei, die Symphonie, wird zur Abschiedsmelodie.


       G         G/F#  Em                     Bm     
Unsere Zeit war wie Musik, unsere liebe Symphonie.
            Asus2        G
Ich will vergessen unser Lied.
G   G/F#  Em                    Bm
Doch ich weiß, gelingen wird es nie.
           Asus2           G     G/F#   Em                Bm
Sie ist vorbei, die Symphonie, wird zur Abschiedsmelodie.


    D             A            Bm              G
Die letzten Reste dieser Nacht fliehen endlich vor dem Tag.
    D             A                     Bm          
Ich fliehe weiter vor mir selbst, einem selbst, das ich nicht mag.
    D              A          Bm                   G
Ich suche schon so lange eine Rettung vor dem ich.
    G                            A
Wie soll ich Frieden finden ohne dich?


       G         G/F#  Em                     Bm     
Unsere Zeit war wie Musik, unsere liebe Symphonie.
            Asus2        G
Ich will vergessen unser Lied.
G   G/F#  Em                    Bm
Doch ich weiß, gelingen wird es nie.
           Asus2           G     G/F#   Em                Bm
Sie ist vorbei, die Symphonie, wird zur Abschiedsmelodie.

Добавлено: 31.05.2016
Другие материалы по этой песне:
  • Аккорды и текст

Страница создана 31.05.2016
http://primanota.ru/saltatio-mortis/abschiedsmelodie-chords.htm
Привет, Гость.
Предлагаем пройти революционный курс по гитаре.
Подарок от PrimaNota.Ru, забирай!