PrimaNota.ru - самый крупный в мире бесплатный архив песенных текстов, аккордов, табулатур и нот


Sabaton - Unbreakable - текст песни, бас-таба, видео

Регистрация Запомнить меня
Войти через:  Facebook Google Twitter Vk Yandex Mail.ru

Sabaton - Unbreakable - текст песни, бас-таба, видео

Печатать
Просмотров: 134
Авторы музыки: Joakim Brodén
Авторы текста: Pär Sundström, Joakim Brodén
-------------------------------------------------------------------------------
                             Unbreakable - Sabaton
-------------------------------------------------------------------------------
Tabbed by: zoltan56

reference from sheet music (songsterr)

Verse 1: X4
G|-------------|----------------|-------------|------------|
D|-------------|----------------|-------------|------------|
A|-3-5-0-0-5---|-3-5-0-0-8-7-3--|-3-5-0-0-5---|-8-7-5--3~--|
E|-------------|----------------|-------------|------------|

Verse 2: X2
G|-------------|----------------|-------------|------------|
D|-------------|----------------|-------------|------------|
A|-3-5-0-0-5---|-3-5-0-0-8-7-3--|-3-5-0-0-5---|-8-7-5--3~--|
E|-------------|----------------|-------------|------------|

Pre Chorus 1:
G|--------|--------|----------|-----------|--------|--------|--------|--------|
D|--------|--------|----------|-----------|--------|--------|--------|--------|
A|--------|--------|-3----3---|-3---3-1-0-|--------|--------|-0~-----|-1----3-|
E|-3~-----|-1~-----|----------|-----------|-3~-----|-1~-----|--------|--------|

Chorus 1:
G|-----------|--------|X4|--------|
D|-----------|--------|X4|--------|
A|-5~------1-|-3~-----|X4|--------|
E|-----------|--------|X4|-3------|

Interlude: X2
G|-------------|----------------|-------------|------------|
D|-------------|----------------|-------------|------------|
A|-3-5-0-0-5---|-3-5-0-0-8-7-3--|-3-5-0-0-5---|-8-7-5--3~--|
E|-------------|----------------|-------------|------------|

Verse 3: X2
G|-------------|----------------|-------------|------------|
D|-------------|----------------|-------------|------------|
A|-3-5-0-0-5---|-3-5-0-0-8-7-3--|-3-5-0-0-5---|-8-7-5--3~--|
E|-------------|----------------|-------------|------------|

Pre Chorus 2:
G|--------|--------|----------|-----------|--------|--------|--------|--------|
D|--------|--------|----------|-----------|--------|--------|--------|--------|
A|--------|--------|-3----3---|-3---3-1-0-|--------|--------|-0~-----|-1----3-|
E|-3~-----|-1~-----|----------|-----------|-3~-----|-1~-----|--------|--------|

Chorus 2:
G|-----------|--------|X4|--------|-----|
D|-----------|--------|X4|--------|-----|
A|-5~------1-|-3~-----|X4|--------|-3~~~|
E|-----------|--------|X4|-3------|-----|

Guitar Riff: gets faster now
G|-------------------|-----------------|-----------------|-----------------|X2
D|-------------------|-----------------|-----------------|-----------------|X2
A|-5-55-555-555-5555-|-55-555-555-5553-|-33-333-333-3333-|-33-333-333-3335-|X2
E|-------------------|-----------------|-----------------|-----------------|X2

Verse 4:
G|-----------------|-----------------|-----------------|-----------------|
D|-----------------|-----------------|-----------------|-----------------|
A|-55-555-555-5553-|-33-333-333-3335-|-55-555-555-5551-|-11-1113-33-3335-|
E|-----------------|-----------------|-----------------|-----------------|

G|-----------------|-----------------|-----------------|-----------------|
D|-----------------|-----------------|-----------------|-----------------|
A|-55-555-555-5553-|-33-333-333-3335-|-55-555-555-5551-|-11-1113-33-333--|
E|-----------------|-----------------|-----------------|---------------3-|

Pre Chorus 3:
G|-------------------------------------------------------|----------------|
D|-------------------------------------------------------|----------------|
A|-----------------3~-33333333333310------------------0~-|------1~~-3~~-5~|
E|--3333331~-111111-----------------3~-3333331~-111111---|----------------|

Chorus 3:
G|------------------|-----------------|-----------------|-----------------|X2
D|------------------|-----------------|-----------------|-----------------|X2
A|--55-555-555-5555-|-55-555-555-5553-|-33-333-333-3333-|-33-333-333-3335-|X2
E|------------------|-----------------|-----------------|-----------------|X2

Solo: X2
G|--------|--------|--------|--------|--------|--------|--------|--------|
D|--------|--------|--------|--------|--------|--------|--------|--------|
A|-----5~-|-----1~-|-----3~-|-----5~-|-----5~-|--------|--------|-----5~-|
E|--------|--------|--------|--------|--------|-----1~-|-----0~-|--------|

rest

Riff Bridge:
G|----------|----------|----------|----------|----------|----------|----------|----------|
D|----------|----------|----------|----------|----------|----------|----------|----------|
A|-55555555-|-55555555-|-33333333-|-33333333-|-55555555-|-55555555-|-11111111-|-3333333--|
E|----------|----------|----------|----------|----------|----------|----------|--------3-|

Pre Chorus 4:
G|-------------------------------------------------------|----------------|
D|-------------------------------------------------------|----------------|
A|-----------------3~-33333333333310------------------0~-|------1~~-3~~-7~|
E|--3333331~-111111-----------------3~-3333331~-111111---|----------------|

Chorus 4:
G|------------------|-----------------|-----------------|-----------------|X3
D|------------------|-----------------|-----------------|-----------------|X3
A|--77-777-777-7777-|-77-777-777-7775-|-55-555-555-5555-|-55-555-555-5557-|X3
E|------------------|-----------------|-----------------|-----------------|X3

G|------------------|-----------------|---------|-----------|-------------|
D|------------------|-----------------|---------|-----------|-----------2-|
A|--77-777-777-7777-|-77-777-777-7775-|-55-5553-|-33-3332~~-|-2222-2222---|
E|------------------|-----------------|---------|-----------|-------------|


thats it, enjoy.


| /  slide up
| \  slide down
| h  hammer-on
| p  pull-off
| ~  vibrato
| +  harmonic
| x  Mute note
===============================================================================
Добавлено: 07.12.2015
Другие материалы по этой песне:

Страница создана 23.03.2012
http://primanota.ru/sabaton/unbreakable-chords.htm
Привет, Гость.
Предлагаем пройти революционный курс по гитаре.
Подарок от PrimaNota.Ru, забирай!