PrimaNota.ru - самый крупный в мире бесплатный архив песенных текстов, аккордов, табулатур и нот


Sabaton - Metalizer - бас-таба, видео

Регистрация Запомнить меня
Войти через:  Facebook Google Twitter Vk Yandex Mail.ru

Sabaton - Metalizer - бас-таба, видео

Печатать
Просмотров: 278
Уроки эстрадного вокала в Санкт-Петербурге
Авторы музыки: Joakim Brodén
Авторы текста: Sabaton
credit to songsterr for sheet music/tabs

Intro - X2
G|---------------|            |-----------------|
D|---------------|            |-----------------|
A|---------------|            |-----------------|
E|-5-------------|rest 2 bars |-1--1--1-3--3--3-|

Intro (cont) -
G|------------------|------------------|------------------|-----------------|
D|-0000000000000000-|------------------|-0000000000000000-|-----------------|
A|------------------|---------00000000-|------------------|-1--1--1-3--3--3-|
E|------------------|-33333333---------|------------------|-----------------|

G|------------------|------------------|------------------|-----------------|
D|-0000000000000000-|------------------|-0000000000000000-|-----------------|
A|------------------|---------00000000-|------------------|-1-------3-----0-|
E|------------------|-33333333---------|------------------|------------1----|

Verse 1 - X4
G|------------------|------------------|------------------|-------------|
D|-0000000000000000-|------------------|-0000000000000000-|-------------|
A|------------------|---------00000000-|------------------|--1/8---3/7--|
E|------------------|-33333333---------|------------------|-------------|

Verse 1 (cont) -
G|------------|------------|
D|----0--3--8-|----2--5--2-|
A|-1----------|-3----------|
E|------------|------------|

Chorus - X2
G|--------------------|-------|--------------------|-------|
D|-0--0000000--000000-|-------|-0--0000000--000000-|-------|
A|--------------------|-1---3-|--------------------|-----3-|
E|--------------------|-------|--------------------|-1-----|

Pre-Verse? -
G|------------------|------------------|------------------|-----------------|
D|-0000000000000000-|------------------|-0000000000000000-|-----------------|
A|------------------|---------00000000-|------------------|-1--1--1-3--3--3-|
E|------------------|-33333333---------|------------------|-----------------|

G|------------------|------------------|------------------|-----------------|
D|-0000000000000000-|------------------|-0000000000000000-|-----------------|
A|------------------|---------00000000-|------------------|-1-------3-----0-|
E|------------------|-33333333---------|------------------|------------1----|

Verse 2 - X4 
G|------------------|------------------|------------------|-------------|
D|-0000000000000000-|------------------|-0000000000000000-|-------------|
A|------------------|---------00000000-|------------------|--1/8---3/7--|
E|------------------|-33333333---------|------------------|-------------|

Verse 2 (cont) -
G|------------|------------|
D|----0--3--8-|----2--5--2-|
A|-1----------|-3----------|
E|------------|------------|

Chorus - X2
G|--------------------|-------|--------------------|-------|
D|-0--0000000--000000-|-------|-0--0000000--000000-|-------|
A|--------------------|-1---3-|--------------------|-----3-|
E|--------------------|-------|--------------------|-1-----|

Break/Interlude? - X2
G|--------|----------|--------|--------|
D|--------|----------|--------|--------|
A|-5----1-|-3------3-|-5----1-|-0----5-|
E|--------|------1---|--------|--------|

Break/Interlude/Solo? (cont) - X4
G|------------------|------------------|------------------|-----------------|
D|-0000000000000000-|------------------|-0000000000000000-|-----------------|
A|------------------|-1111111133333333-|------------------|---------33333333|
E|------------------|------------------|------------------|-11111111--------|

Break/Interlude/Solo?(cont) - X1 and 3 bars(stop after third bar,second time) 
G|------------------|------------------|------------------|-----------------|
D|------------------|------------------|------------------|---------00000000|
A|-5555555511111111-|-33333333----3333-|-5555555511111111-|-00000000--------|
E|------------------|---------1111-----|------------------|-----------------|

Solo (Cont) - X4 (first bar is first time only)
G|--------|--------|------------|              |----|
D|------0-|-0------|------------|              |----|
A|-0------|------0-|-1--8--3--7-|              |-0--|
E|--------|--------|------------|then end with |----|

Pre Chorus - 
G|------------------|------------------|------------------|-----------------|
D|-0000000000000000-|------------------|-0000000000000000-|-----------------|
A|------------------|---------00000000-|------------------|-1--1--1-3--3--3-|
E|------------------|-33333333---------|------------------|-----------------|

G|------------------|------------------|------------------|-----------------|
D|-0000000000000000-|------------------|-0000000000000000-|-----------------|
A|------------------|---------00000000-|------------------|-1-------3-----0-|
E|------------------|-33333333---------|------------------|------------1----|

Chorus - X2
G|--------------------|-------|--------------------|-------|
D|-0--0000000--000000-|-------|-0--0000000--000000-|-------|
A|--------------------|-1---3-|--------------------|-----3-|
E|--------------------|-------|--------------------|-1-----|

Outro - X2
G|--------------------|-------|--------------------|-------|          |---|
D|-2--2222222--222222-|-------|-2--2222222--222222-|-------|          |---|
A|--------------------|-3---5-|--------------------|-----5-|          |-7-|
E|--------------------|-------|--------------------|-3-----| end with |---|

thats it, sorry its long but there are multiple changes, made it short as possible.
Добавлено: 29.11.2013
Другие материалы по этой песне:

Страница создана 19.06.2012
http://primanota.ru/sabaton/metalizer-chords.htm
Привет, Гость.
Предлагаем пройти революционный курс по гитаре.
Подарок от PrimaNota.Ru, забирай!