PrimaNota.ru - самый крупный в мире бесплатный архив песенных текстов, аккордов, табулатур и нот


Sabaton - 7734 - текст песни, бас-таба, видео

Регистрация Запомнить меня
Войти через:  Facebook Google Twitter Vk Yandex Mail.ru

Sabaton - 7734 - текст песни, бас-таба, видео

Печатать
Просмотров: 331
Авторы музыки: Joakim Brodén
Авторы текста: Joakim Brodén, Oskar Montelius, Rikard Sundén
credit to songsterr for sheet music/tabs

Intro - nothing

Verse 1 - X5
G|-----------------|-----------------|-----------------|-----------------|
D|-----------------|-----------------|-----------------|-----------------|
A|-0-0-0-0-0-0-0-0-|-----------------|-3-3-3-3-3-3-3-3-|-----------------|
E|-----------------|-1-1-1-1-1-1-1-1-|-----------------|-3-3-3-3-3-3-3-3-|

Verse 1 (Cont) - 
G|-----------------|-----------------|-----------------|-----------------|
D|-----------------|-----------------|-----------------|-----------------|
A|-0-0-0-0-0-0-0-0-|-----------------|-3-3-3-3-3-3-3-3-|-----------------|
E|-----------------|-1-1-1-1-1-1-1-1-|-----------------|-3-3-3-3-0-0-0-0-|

G|-----------------|-----------------|-----------------|-----------------|
D|-----------------|-----------------|-----------------|-----------------|
A|-0-0-0-0-0-0-0-0-|-----------------|-3-3-3-3-3-3-3-3-|-----------------|
E|-----------------|-1-1-1-1-1-1-1-1-|-----------------|-3-3-3-3-3-3-3-3-|

G|-----------------|-----------------|-----------------|-----------------|
D|-----------------|-----------------|-----------------|-----------------|
A|-0-0-0-0-0-0-0-0-|-----------------|-3-3-3-3-3-3-3-3-|-----------------|
E|-----------------|-1-1-1-1-1-1-1-1-|-----------------|-3-3-3-3-0-0-0-0-|

Chorus - X2 (on second time, replace the 5 with a 3)
G|-------2-----2---|---2-----2-------|-----------------|-----------------|
D|-----------------|-----------------|-----------------|-----------------|
A|-0-0-0---0-0---0-|-0---0-0---0-0-2-|-3-3-3-3-3-3-3-3-|-----------------|
E|-----------------|-----------------|-----------------|-3-3-3-3-3-3-5-3-|

Interlude - X2 (on second time, replace the 5 with a 3)
G|-------2-----2---|---2-----2-------|-----------------|-----------------|
D|-----------------|-----------------|-----------------|-----------------|
A|-0-0-0---0-0---0-|-0---0-0---0-0-2-|-3-3-3-3-3-3-3-3-|-----------------|
E|-----------------|-----------------|-----------------|-3-3-3-3-3-3-5-3-|

Verse 2 - X5
G|-----------------|-----------------|-----------------|-----------------|
D|-----------------|-----------------|-----------------|-----------------|
A|-0-0-0-0-0-0-0-0-|-----------------|-3-3-3-3-3-3-3-3-|-----------------|
E|-----------------|-1-1-1-1-1-1-1-1-|-----------------|-3-3-3-3-3-3-3-3-|

Verse 2 (cont) - 
G|-----------------|-----------------|-----------------|-----------------|
D|-----------------|-----------------|-----------------|-----------------|
A|-0-0-0-0-0-0-0-0-|-----------------|-3-3-3-3-3-3-3-3-|-----------------|
E|-----------------|-1-1-1-1-1-1-1-1-|-----------------|-3-3-3-3-0-0-0-0-|

G|-----------------|-----------------|-----------------|-----------------|
D|-----------------|-----------------|-----------------|-----------------|
A|-0-0-0-0-0-0-0-0-|-----------------|-3-3-3-3-3-3-3-3-|-----------------|
E|-----------------|-1-1-1-1-1-1-1-1-|-----------------|-3-3-3-3-3-3-3-3-|

G|-----------------|-----------------|-----------------|-----------------|
D|-----------------|-----------------|-----------------|-----------------|
A|-0-0-0-0-0-0-0-0-|-----------------|-3-3-3-3-3-3-3-3-|-----------------|
E|-----------------|-1-1-1-1-1-1-1-1-|-----------------|-3-3-3-3-0-0-0-0-|

Chorus 2 - X2 (on second time, replace the 5 with a 3)
G|-------2-----2---|---2-----2-------|-----------------|-----------------|
D|-----------------|-----------------|-----------------|-----------------|
A|-0-0-0---0-0---0-|-0---0-0---0-0-2-|-3-3-3-3-3-3-3-3-|-----------------|
E|-----------------|-----------------|-----------------|-3-3-3-3-3-3-5-3-|

Solo - X4 (on second and fourth time, replace the 5 with a 3)
G|-------2-----2---|---2-----2-------|-----------------|-----------------|
D|-----------------|-----------------|-----------------|-----------------|
A|-0-0-0---0-0---0-|-0---0-0---0-0-2-|-3-3-3-3-3-3-3-3-|-----------------|
E|-----------------|-----------------|-----------------|-3-3-3-3-3-3-5-3-|

Pre-Chorus - X2
G|-----------------|-----------------|-----------------|-----------------|
D|-----------------|-----------------|-0-0-0-0-0-0-0-0-|-----------------|
A|-2-2-2-2-2-2-2-2-|-----------------|-----------------|-0-0-0-0-0-0-0-0-|
E|-----------------|-3-3-3-3-3-3-3-3-|-----------------|-----------------|

G|-----------------|-----------------|-----------------|-----------------|
D|-----------------|-----------------|-0-0-0-0-0-0-0-0-|-----------------|
A|-2-2-2-2-2-2-2-2-|-----------------|-----------------|-0-0-0-0---------|
E|-----------------|-3-3-3-3-3-3-3-3-|-----------------|---------2-2-2-2-|

Outro - X4 (end on the that first note of the first bar after fourth time)
G|-------4-----4---|---4-----4-------|-----------------|-----------------|
D|-----------------|-----------------|-0-0-0-0-0-0-0-0-|-----------------|
A|-2-2-2---2-2---2-|-2---2-2---2-2-4-|-----------------|-0-0-0-0-0-0-2-0-|
E|-----------------|-----------------|-----------------|-----------------|

thats it, hope you enjoy, relatively simple except the outro.
Добавлено: 13.06.2013
Другие материалы по этой песне:

Страница создана 16.06.2012
http://primanota.ru/sabaton/7734-chords.htm
Привет, Гость.
Предлагаем пройти революционный курс по гитаре.
Подарок от PrimaNota.Ru, забирай!