PrimaNota.ru - самый крупный в мире бесплатный архив песенных текстов, аккордов, табулатур и нот


Rusted Root - Airplane - аккорды и текст, видео

Регистрация Запомнить меня
Войти через:  Facebook Google Twitter Vk Yandex Mail.ru

Rusted Root - Airplane - аккорды и текст, видео

Печатать
Просмотров: 101
Airplane
Rusted Root
TAB: AIRPLANE (by Rusted Root)
Transcriber: Tim Wiegand (jaegermeister70@hotmail.com)
Standard tuning
(CAPO II)


Opening and verse:

E--------------0--0-0--0-0--|--------------0--0-0--0-0-----------
B--------------0--0-0--0-0--|--------------1--1-1--1-1-----------
G--------------4--4-4--4-4--|--------------0--0-0--0-0-----------
D--------------2--2-2--2-2--|--------------2--2-2--2-2-----------
A---------------------------|---------3----3--3-3--3-3-----------
E---0--3--0-----------------|---0--3-----------------------------

E--------------0--0-0--0-0--|--------------0--0-0--0-0-----------
B--------------1--1-1--1-1--|--------------0--0-0--0-0-----------
G--------------2--2-2--2-2--|--------------4--4-4--4-4-----------
D--------------2--2-2--2-2--|--------------2--2-2--2-2-----------
A---------0----0--0-0--0-0--|--------------2--2-2--2-2-----------
E---0--3--------------------|---0--3--0--------------------------


Chorus:

E----0-----0-----0-----0-----------------------------------------
B----0-----1-----1-----0-----------------------------------------
G----4-----0-----2-----4-----------------------------------------
D----2-----2-----2-----2-----------------------------------------
A----2-----3-----0-----2-----------------------------------------
E----0-----------------0-----------------------------------------
     
Добавлено: 11.07.2013
Другие материалы по этой песне:
  • Аккорды и текст

Страница создана 09.04.2012
http://primanota.ru/rusted-root/airplane-chords.htm
Привет, Гость.
Предлагаем пройти революционный курс по гитаре.
Подарок от PrimaNota.Ru, забирай!