PrimaNota.ru - самый крупный в мире бесплатный архив песенных текстов, аккордов, табулатур и нот


Rusted Root - Martyr - аккорды и текст, таба, видео

Регистрация Запомнить меня
Войти через:  Facebook Google Twitter Vk Yandex Mail.ru

Rusted Root - Martyr - аккорды и текст, таба, видео

Печатать
Просмотров: 224
Martyr
Rusted Root
		   Hope these tabs help.  I think it's great that you are putting them on your
page.

Peace,
Joe


Martyr

Intro\Verse: (Just play the first part in the beginning then just keep
repeating the second part)

  (1st part)                                                          (2nd part)
e------------------------------------------------------------------------------
B-------------------5-5-5-5----------------------------------------------------
G-------6-6-7-7-7-7---------7-6--------9----X--9\----------7---------------7-7-
D--/7---------------------------7--------------------------------------/7------
A----------------------------------7-------------------5-------5--X------------
E------------------------------------------------------------------------------

e------------------------------------------------------
B---------5-5-5-5--------------------------------------
G-7-7-7-7---------7-6---------9---X--9--------7--------
D---------------------7--------------------------------
A-------------------------7-------------X--5-----5-5---
E------------------------------------------------------

lead (For intro and chorus)

e-12-12-12-12-12-12-12-12-12-12-12-12-12-12-12-12-12-12-12-12-12-12-12-12-10-10-
B-------------------------------------------------------------------------------
G-------------------------------------------------------------------------------
D-------------------------------------------------------------------------------
A-------------------------------------------------------------------------------
E-------------------------------------------------------------------------------

e-10-10-9-9-10--12-12-12-12-12-12-12-12-12-12-12-12-12-12-12-12-12-12-12-12-12-
B------------------------------------------------------------------------------
G------------------------------------------------------------------------------
D------------------------------------------------------------------------------
A------------------------------------------------------------------------------
E------------------------------------------------------------------------------

e-12-12-12-12-12-12-12-12-12---14-14-14-14-14-14--12-12-12---10--10-9--10--12--
B------------------------------------------------------------------------------
G------------------------------------------------------------------------------
D------------------------------------------------------------------------------
A------------------------------------------------------------------------------
E------------------------------------------------------------------------------

e---12-12---10---9--------------------------------9----------------------------
B-------------------10\-------/10-10-10-10-10-10------10--10--X---X-X-10-10-10-
G------------------------------------------------------------------------------
D------------------------------------------------------------------------------
A------------------------------------------------------------------------------
E------------------------------------------------------------------------------

e-----------9---------
B-10-10-10-------10---
G---------------------
D---------------------
A---------------------
E---------------------

Towards the end of the verses just pick the 12th fret on the high e string
at random.

Lead 2 (Play this pattern a few times)

e-------12------------12-----------12---------------12-12--------12------------
B-9-10------9-9--9-10------9---10-------9-9-9-9-10---------9-10-----9-9-9-9-10-
G------------------------------------------------------------------------------
D------------------------------------------------------------------------------
A------------------------------------------------------------------------------
E------------------------------------------------------------------------------

e-12-12-12--10---9---9^10^9----9----------
B---------------------------10----10-10---
G-----------------------------------------
D-----------------------------------------
A-----------------------------------------
E-----------------------------------------

Bridge:

e-------------------------------------------------------------------------------
B-------------------------------------------------------------------------------
G------------------------2------------------------------------------------------
D--2--4-----5--4----2---------5----4--5------2--4---5--4-----2-----0--2---0--2--
A-------------------------------------------------------------------------------
E-------------------------------------------------------------------------------

e-------------------------------------------------------------------------------
B-------------------------------------------------------------------------------
G------------------------2------------------------------------------------------
D--2--4-----5--4----2---------5----4--5------2--4---5--4-----2-----0--2---0--2--
A-------------------------------------------------------------------------------
E-------------------------------------------------------------------------------

e-------------------------------------------------------------------------------
B-------------------------------------------------------------------------------
G------------------------2------------------------------------------------------
D--2--4-----5--4----2---------5----4--5------2--4---5--4-----2-----0--2---0--2--
A-------------------------------------------------------------------------------
E-------------------------------------------------------------------------------

Guitar solo:

e-0-0-0-0-2-0-0-0-4-0-0-0-5-0-0-0-0-12---0-10---0-0-9-9-9---10^9------0-0-0-0-2-
B----------------------------------------------------------------10-------------
G-------------------------------------------------------------------------------
D-------------------------------------------------------------------------------
A-------------------------------------------------------------------------------
E-------------------------------------------------------------------------------

e----0-0-4----0-0-5------------------------------------------0-0-0-0-2-0-0-0-4-
B--------------------0--0---12-12-9-9-----12-12-12-12-9-9----------------------
G-------------------------------------9-9-----------------9--------------------
D------------------------------------------------------------------------------
A------------------------------------------------------------------------------
E------------------------------------------------------------------------------

e-0-0-0-5-0-0-0--0-12--0-10--0-0-9-9-9--10^9----------9--10-9----9-12-12-12-12-
B--------------------------------------------10-10-10---------10---------------
G------------------------------------------------------------------------------
D------------------------------------------------------------------------------
A------------------------------------------------------------------------------
E------------------------------------------------------------------------------

e-10-9----------------------------------------
B------10--9--12--9-9---9-12-12-12-12-10-9----
G---------------------9--------------------9--
D---------------------------------------------
A---------------------------------------------
E---------------------------------------------

Outro solo:

e-0-0-0-0-2-0-0-0-4-0-0-0-5-0-0-0-12--0-10--0-0-9-9-9-9-10-9----0-0-0-0-2-0-0-0-
B------------------------------------------------------------10-----------------
G-------------------------------------------------------------------------------
D-------------------------------------------------------------------------------
A-------------------------------------------------------------------------------
E-------------------------------------------------------------------------------

e-4-0-0-0-5---------------------------------------0-0-0-0-2---0-0-4---0-0-5-5-0-
B-----------0-0-0---12-12-9-9-9-9-12--12--10-9----------------------------------
G----------------------------------------------9--------------------------------
D-------------------------------------------------------------------------------
A-------------------------------------------------------------------------------
E-------------------------------------------------------------------------------

e-0-0-12--0-10--0-0-9-9-9-9-10-9-----0--12-12-9-9-----12-12-12-12-9-9-----------
B--------------------------------10---------------10------------------10--0--12-
G-------------------------------------------------------------------------------
D-------------------------------------------------------------------------------
A-------------------------------------------------------------------------------
E-------------------------------------------------------------------------------

e---------------------------------
B-12-9-9-9-9-12-12-12-------------
G----------------------9-9-9-9----
D---------------------------------
A---------------------------------
E---------------------------------

Enjoy,
Joe





From jwjenks@ix.netcom.com Thu May 15 17:12:25 1997

TAB: "Martyr" by Rusted Root

Album: WHEN I WOKE
Track #: 7
transcriber: Jeff Jenks



Martyr

Intro\Verse: (Just play the first part in the beginning then just keep
repeating the second part)

  (1st part)
(2nd part)
e------------------------------------------------------------------------------
B-------------------5-5-5-5----------------------------------------------------
G-------6-6-7-7-7-7---------7-6--------9----X--9\----------7---------------7-7-
D--/7---------------------------7--------------------------------------/7------
A----------------------------------7-------------------5-------5--X------------
E------------------------------------------------------------------------------

e------------------------------------------------------
B---------5-5-5-5--------------------------------------
G-7-7-7-7---------7-6---------9---X--9--------7--------
D---------------------7--------------------------------
A-------------------------7-------------X--5-----5-5---
E------------------------------------------------------

lead (For intro and chorus)

e-12-12-12-12-12-12-12-12-12-12-12-12-12-12-12-12-12-12-12-12-12-12-12-12-10-10-
B-------------------------------------------------------------------------------
G-------------------------------------------------------------------------------
D-------------------------------------------------------------------------------
A-------------------------------------------------------------------------------
E-------------------------------------------------------------------------------

e-10-10-9-9-10--12-12-12-12-12-12-12-12-12-12-12-12-12-12-12-12-12-12-12-12-12-
B------------------------------------------------------------------------------
G------------------------------------------------------------------------------
D------------------------------------------------------------------------------
A------------------------------------------------------------------------------
E------------------------------------------------------------------------------

e-12-12-12-12-12-12-12-12-12---14-14-14-14-14-14--12-12-12---10--10-9--10--12--
B------------------------------------------------------------------------------
G------------------------------------------------------------------------------
D------------------------------------------------------------------------------
A------------------------------------------------------------------------------
E------------------------------------------------------------------------------

e---12-12---10---9--------------------------------9----------------------------
B-------------------10\-------/10-10-10-10-10-10------10--10--X---X-X-10-10-10-
G------------------------------------------------------------------------------
D------------------------------------------------------------------------------
A------------------------------------------------------------------------------
E------------------------------------------------------------------------------

e-----------9---------
B-10-10-10-------10---
G---------------------
D---------------------
A---------------------
E---------------------

Towards the end of the verses just pick the 12th fret on the high e
string
at random.

Lead 2 (Play this pattern a few times)

e-------12------------12-----------12---------------12-12--------12------------
B-9-10------9-9--9-10------9---10-------9-9-9-9-10---------9-10-----9-9-9-9-10-
G------------------------------------------------------------------------------
D------------------------------------------------------------------------------
A------------------------------------------------------------------------------
E------------------------------------------------------------------------------

e-12-12-12--10---9---9^10^9----9----------
B---------------------------10----10-10---
G-----------------------------------------
D-----------------------------------------
A-----------------------------------------
E-----------------------------------------

Bridge:

e-------------------------------------------------------------------------------
B-------------------------------------------------------------------------------
G------------------------2------------------------------------------------------
D--2--4-----5--4----2---------5----4--5------2--4---5--4-----2-----0--2---0--2--
A-------------------------------------------------------------------------------
E-------------------------------------------------------------------------------

e-------------------------------------------------------------------------------
B-------------------------------------------------------------------------------
G------------------------2------------------------------------------------------
D--2--4-----5--4----2---------5----4--5------2--4---5--4-----2-----0--2---0--2--
A-------------------------------------------------------------------------------
E-------------------------------------------------------------------------------

e-------------------------------------------------------------------------------
B-------------------------------------------------------------------------------
G------------------------2------------------------------------------------------
D--2--4-----5--4----2---------5----4--5------2--4---5--4-----2-----0--2---0--2--
A-------------------------------------------------------------------------------
E-------------------------------------------------------------------------------

Guitar solo:

e-0-0-0-0-2-0-0-0-4-0-0-0-5-0-0-0-0-12---0-10---0-0-9-9-9---10^9------0-0-0-0-2-
B----------------------------------------------------------------10-------------
G-------------------------------------------------------------------------------
D-------------------------------------------------------------------------------
A-------------------------------------------------------------------------------
E-------------------------------------------------------------------------------

e----0-0-4----0-0-5------------------------------------------0-0-0-0-2-0-0-0-4-
B--------------------0--0---12-12-9-9-----12-12-12-12-9-9----------------------
G-------------------------------------9-9-----------------9--------------------
D------------------------------------------------------------------------------
A------------------------------------------------------------------------------
E------------------------------------------------------------------------------

e-0-0-0-5-0-0-0--0-12--0-10--0-0-9-9-9--10^9----------9--10-9----9-12-12-12-12-
B--------------------------------------------10-10-10---------10---------------
G------------------------------------------------------------------------------
D------------------------------------------------------------------------------
A------------------------------------------------------------------------------
E------------------------------------------------------------------------------

e-10-9----------------------------------------
B------10--9--12--9-9---9-12-12-12-12-10-9----
G---------------------9--------------------9--
D---------------------------------------------
A---------------------------------------------
E---------------------------------------------

Outro solo:

e-0-0-0-0-2-0-0-0-4-0-0-0-5-0-0-0-12--0-10--0-0-9-9-9-9-10-9----0-0-0-0-2-0-0-0-
B------------------------------------------------------------10-----------------
G-------------------------------------------------------------------------------
D-------------------------------------------------------------------------------
A-------------------------------------------------------------------------------
E-------------------------------------------------------------------------------

e-4-0-0-0-5---------------------------------------0-0-0-0-2---0-0-4---0-0-5-5-0-
B-----------0-0-0---12-12-9-9-9-9-12--12--10-9----------------------------------
G----------------------------------------------9--------------------------------
D-------------------------------------------------------------------------------
A-------------------------------------------------------------------------------
E-------------------------------------------------------------------------------

e-0-0-12--0-10--0-0-9-9-9-9-10-9-----0--12-12-9-9-----12-12-12-12-9-9-----------
B--------------------------------10---------------10------------------10--0--12-
G-------------------------------------------------------------------------------
D-------------------------------------------------------------------------------
A-------------------------------------------------------------------------------
E-------------------------------------------------------------------------------

e---------------------------------
B-12-9-9-9-9-12-12-12-------------
G----------------------9-9-9-9----
D---------------------------------
A---------------------------------
E---------------------------------     
Добавлено: 30.10.2013
Другие материалы по этой песне:
  • Аккорды и текст

Страница создана 13.03.2012
http://primanota.ru/rusted-root/martyr-chords.htm
Привет, Гость.
Предлагаем пройти революционный курс по гитаре.
Подарок от PrimaNota.Ru, забирай!