PrimaNota.ru - самый крупный в мире бесплатный архив песенных текстов, аккордов, табулатур и нот


Rudderless - Beautiful Mess - таба, видео

Регистрация Запомнить меня
Войти через:  Facebook Google Twitter Vk Yandex Mail.ru

Rudderless - Beautiful Mess - таба, видео

Печатать
Просмотров: 194
Уроки эстрадного вокала в Санкт-Петербурге
Capo on 2nd fret



p= pull off
h= hammer on
/= slide

riff throught intro and chorus is looped


e-=---------------------------------------------------------------
B-=---------------------------------------------------------------
G-=---------------------------------------------------------------
D-=----7p6--4h6p4--2----------------(x2)----------4---------2-----
A-=-0------------------2h4p2--0---------------------4----------2--
E-=--------------------------------------------2--------0---------



power chords are used in the song


    A     D     F#m     E

e-=----------------------------------------------------------
B-=----------------------------------------------------------
G-=-2-----7--------------------------------------------------
D-=-2-----7------4-----2-------------------------------------
A-=-0-----5------4-----2-------------------------------------
E-=--------------2-----0-------------------------------------



                A
Wake up in your favorite shoes
              D
Sunsets and afternoons
                   F#m
Make it up make it up for me
     E                  A
and change the story
           A
Stylishly under-dressed
                D
Home fazed and unimpressed
                F#m
Carry on carry on its great
   E                
you can't ignore me
D
    Don't stop, you're good with what you got
F#m           E
  You're so emotional
D
    Stand up, take it from the top
F#m         E
  its only loneliness
D
    Guess what, the music never stops
F#m          E
   I get so emotional
D                          A
   We're such a beautiful mess

One thing I really hate
is when Sam is really late
Hurry up hurry up and wait
Don't be sorry

Lets make the most of us
Love made a joke of us
Hurry up hurry up and wait
don't you worry

Don't stop, you're good with what you got
You're so emotional
Stand up, take it from the top
its only loneliness
Guess what, the music never stops
I get so emotional
We're such a beautiful mess

Don't stop, you're good with what you got
You're so emotional
Stand up, take it from the top
its only loneliness
Guess what, the music never stops
I get so emotional
We're such a beautiful mess

We're such a beautiful mess
We're such a beautiful mess
Добавлено: 25.05.2016
Другие материалы по этой песне:
  • Аккорды и текст

Страница создана 25.05.2016
http://primanota.ru/rudderless/beautiful-mess-chords.htm
Привет, Гость.
Предлагаем пройти революционный курс по гитаре.
Подарок от PrimaNota.Ru, забирай!