PrimaNota.ru - самый крупный в мире бесплатный архив песенных текстов, аккордов, табулатур и нот


Rudderless - Sing Along - таба, видео

Регистрация Запомнить меня
Войти через:  Facebook Google Twitter Vk Yandex Mail.ru

Rudderless - Sing Along - таба, видео

Печатать
Просмотров: 272
-------------------------------------------------------------------------------
                             Sing Along - Rudderless
-------------------------------------------------------------------------------
Tabbed by: mgwilson15
This is the tab for Sing Along from the movie rudderless
There were only parts of the intro so I made a complete one.
Not sure if everything's right cause its hard to hear while he's singing.
Hope y'all enjoy and comment any corrections or anything

Tuning: Standard

Intro: E Am
e|-------------0------------------------------|
B|-------------------------------1---0--------|
G|-------1-----------1------------------2-----|
D|----2-----2-----2-----2------2----------2---|
A|---------------------------0---0---0--------|
E|--0----0-----0-----0------------------------|

e|-------------0------------------------------|
B|---------------------------------0h1--0-----|
G|-------1-----------1-----------2------------|
D|----2-----2-----2-----2------2--------------|
A|---------------------------0----------------|
E|--0----0-----0-----0------------------------|

Verse 1: E Am G(last line)
        Stuck in your confines
e|-------------0---------------------0--------|
B|--------------------------------------------|
G|-------1-----------1-----------2-------2----|
D|----2-----2-----2-----2------2---2---2---2--|
A|---------------------------0-------0---0----|
E|--0----0-----0-----0------------------------|

          Chewing it           over
e|-------------0-------------------0----------|
B|--------------------------------------------|
G|-------1-----------1-----------2-----2------|
D|----2-----2-----2-----2------2--------------|
A|---------------------------0-----0----------|
E|--0----0-----0-----0------------------------|

       Caught in your headlights
e|-------------0---------------------0--------|
B|--------------------------------------------|
G|-------1-----------1-----------2-------2----|
D|----2-----2-----2-----2------2-------2---2--|
A|---------------------------0-----0----------|
E|--0----0-----0-----0------------------------|

          Stop              staring (down strum F on staring)
e|----------3---------|
B|--------------------|
G|------0-------0-----|
D|----0---0---0---0---|
A|--------------------|
E|--3-----------------|



************************************

| /   slide up
| \   slide down
| h   hammer-on
| p   pull-off
| ~   vibrato
| +   harmonic
| x   Mute note
| b   Bend
| pb  Pre-bend
| br  Bend release
| pbr Pre-bend release
| brb Bend release bend

************************************
Добавлено: 01.11.2015
Другие материалы по этой песне:
  • Аккорды и текст

Страница создана 01.11.2015
http://primanota.ru/rudderless/sing-along-chords.htm
Привет, Гость.
Предлагаем пройти революционный курс по гитаре.
Подарок от PrimaNota.Ru, забирай!