PrimaNota.ru - самый крупный в мире бесплатный архив песенных текстов, аккордов, табулатур и нот


Royksopp - Sordid Affair - аккорды и текст, видео

Регистрация Запомнить меня
Войти через:  Facebook Google Twitter Vk Yandex Mail.ru

Royksopp - Sordid Affair - аккорды и текст, видео

Печатать
Просмотров: 104
Sordid Affair
Royksopp
Song: Sordid Affair
Band: Röyksopp
Album: The Inevitable End
Year: 2014
Tabber: beranger80@hotmail.com



Intro (0:00)

F#



Riff (0:14)

   F#            D#m             Bbm             Ab
e--9----------|--11-----------|--13-9---------|--11-9-8----|
b----11-7-----|------11-7-----|--------13-11--|---------9--|
g---------10--|-----------10--|---------------|------------|
d-------------|---------------|---------------|------------|
a-------------|---------------|---------------|------------|
e-------------|---------------|---------------|------------|



Intro (0:46)

F#  D#m  Bbm  Ab
F#  D#m  Bbm  Ab



Verse (1:14)

F#                D#m
There was a time, dark and divine,
Bbm                Ab
Exciting and new, shameful untrue
F#               D#m
Free to explore, we had it all.
Bbm                Ab
Towering trust, insatiable lust



Chorus (1:45)

F#                 D#m
Clouding the truth both of us knew
      Bbm             Ab
This sordid affair is ending in tears
    F#             D#m
Yes we must go on, knowing the wrong
Bbm                Ab
Hunting the day it was taken away



Bridge (2:15)

   F#            D#m             Bbm             Ab
e--9----------|--11-----------|--13-9---------|--11-9-8----|
b----11-7-----|------11-7-----|--------13-11--|---------9--|
g---------10--|-----------10--|---------------|------------|
d-------------|---------------|---------------|------------|
a-------------|---------------|---------------|------------|
e-------------|---------------|---------------|------------|



Chords (2:45)

F#  D#m  Bbm  Ab



Bridge (3:00)

F#           D#m       Bbm     Ab
Oh, all our love; fell down to Earth.
F#               D#m        Bbm      Ab
Here, broken and cold, with great remorse



Verse (3:30)

F#
Before a while it all made sense
D#m
It might have been just a dark pretence
        Bbm
But you had me
      Ab
And I left it



Verse (3:46)

F#
To be with you, to be the one,
D#m
To live a lie
                         Bbm
It really got me all excited. 
         Ab
I felt wanted



Verse (4:01)

F#                 D#m
Then in the dark a sorrowing sigh
     Bbm            Ab
Was taken away. Deliverance came
F#                 D#m
Fell from the sky. Heaven replied
   Bbm                Ab
Salvation in strings, silent and clean.



Verse (4:30)

F#                 D#m  
All that we were, all that we knew
Bbm             Ab
Faded away with tears in the rain.
     F#                D#m
Yes all that we were, all that we knew
    Bbm              Ab
Is fading away like tears in the rain.



Outro (5:00)

F#                   D#m
    All that we were     all that we knew
Bbm             Ab
    Fading away
F#                   D#m
    All that we were     all that we knew
Bbm             Ab
    Fading away



Outro (5:30)

F#  D#m  Bbm  Ab
F#  D#m  Bbm  Ab
Добавлено: 27.12.2015
Другие материалы по этой песне:
  • Аккорды и текст

Страница создана 27.12.2015
http://primanota.ru/royksopp/sordid-affair-chords.htm
Привет, Гость.
Предлагаем пройти революционный курс по гитаре.
Подарок от PrimaNota.Ru, забирай!