PrimaNota.ru - самый крупный в мире бесплатный архив песенных текстов, аккордов, табулатур и нот


Royal Hunt - 1348 - текст песни, таба, видео

Регистрация Запомнить меня
Войти через:  Facebook Google Twitter Vk Yandex Mail.ru

Royal Hunt - 1348 - текст песни, таба, видео

Печатать
Просмотров: 279
Авторы: André Andersen

Album: Moving Target(1995)
Song: 1348

* Words and music by André Andersen

Here you have a great song. This song was made by André Andersen (Keyboards), so the guitar 
doesn't play very much. It's very probable that you get lost, so I put the timer near the tab.
   
Legend
fb   - full bend (2 frets)
fbr  - full bend then release
hb   - half bend (1 fret)
hbr  - half bend then release
~    - vibrato
T    - Tap
A.H  - artificial harmonic
N.H  - natural harmonic
*..* - repeat everything in between
^^   - depress bar before hitting note then release after note is hit

Tune the whole guitar a half step lower 

Guitar 1 (0:26) 
|--------------------------------|
|--------------------------------|
|--------------------------------|
|---7----7---(5)-----------------|
|---5----5---(7)------2--0-------|
|----------------------------4---|
|                                |
|                                |       
|                                |
|--20fbr- 20fbr -----------------|
|--------------------------------|
|--------------------------------|
|--------------------------------|
|--------------------------------|
|--------------------------------|







Rhy. Fig 1 (0:30)

     F              G          Am                             Dm      Em      Am                x2
|------------------------------0----------1---------0----------0--------|
|--1----1---3---3-----1----0h1-----1-0h1-----3----0---1----0h1----1-0h1-|
|*---2--------4----------2----------------------0-------2--------------*|
|*----------------------------------------0----------------------------*|
|---------------------0-------------------------------0-----------------|
|--1--------3-----------------------------------0-----------------------|

            N.H.
|--15T--12-----|
|--------------|
|--------------|
|--------------|
|--------------|
|--------------|

With Rhy. Fig. 1  (0:45)

F      G        A              D          E     A   
Fire is rising off the ground, Fear's the king. Entire town 

F       G  A               D           E       A   
Looking up across the sky, Which one's turn to die

F       G       A             D           E       A   
All are one and worlds apart, Undertakers working hard

F      G           A             D       E        A   
You'll remember the loss of fate, December 48  


Rhy. fig 2 (1:16)
  Vol. Swell <              Vol. Swell <                  Vol. Swell <
|---------------|-------------------|-----------------------|----------
|---------------|-------------------|-----------------------|----------
|--2----------9-|--2-------9-----7--|--2-----9----7----5----|----------
|--2----------7-|--2-------7-----5--|--2-----7----5----3----|--------5-
|--0------0-----|--0----0----0------|--0---0----0----0------|--5-7-8---
|---------------|-------------------|-----------------------|----------

--------------------------|
--------------------------|
--------------------------|
5h7p5--5------------------|
---------8-7-5-3-5-3-2----|
--------------------------|

 Fill 1 (1:32)                                Fill 2 (1:41)

|-----------|                                  |--------------------|
|-----------|                                  |--------------------|
|-----------|                                  |--------------------|
|-----------|                                  |--------------------|
|-5-3-2-0---|                                  |----------5---------|
|-----------|                                  |--5-7-8----8-7-5-|

Rhy. Fig 3 (1:49)                                       
|------------------------------------------------------------------------|
|------------------------------------------------------------------------|
|*-----------------------------------------------------------------------|
|*----------------5--7--5---------------------------------------5--7--5--|
|----0-3-0-6-0-3--3--5--3---0-3-0-6-0-3--3--5----0-3-0-6-0-3----3--5--3--|
|--3------------5---------3--------------1--3--3-------------5-----------|

                                      x4
-------------------------------|
-------------------------------|
------------------------------*|
-----------------------7--9---*|
-----0-3-0-6-0-3-------5--7----|
--3----------------------------|
Solo fill 1 (2:03)                            Solo fill 2 (2:10)

|----------------|                           |--------------------------|
|----------------|                           |-----12hb-12p11---1112-11-|
|----5--7--------|                           |--13-----------13---------|
|--7--7-7/\/\/\--|                           |--------------------------|
|----------------|                           |--------------------------|
|----------------|                           |--------------------------|


Rhy. F|g.4 A (2:31)
|-----------------------------------------------------------------------|
|-----------------------------------------------------------------------|
|-----------------------------------------------------------------------|
|----7--5--3-2-----------7---5---3---2---7--5--3---7---5---7---5--3--2--|
|-0----0--0--0---5-3-2-0---0---0---0----0--0--0--0---0---0---0---0--0---|
|-----------------------------------------------------------------------|

Rhy. F|g.4 B (2:42)
|---------------------------------------------------------|
|---------------------------------------------------------|
|---------------------------------------------------------|
|-------------------7---5---3---2-----7---5---3---7-------|
|---------5-------0---0----0--0----0---0---0---0---0------|
|-5-7-8---8-7---------------------------------------------|

Keyboard Solo(2:50) : 
               -------------Cresc.
F -G -G# -A -B -C -D -E

Rhy. Fig 5 (3:04)

Devil's mark is on your face,          Black death's all around the place
|-----------------------------------------|-----------------------------|
|-----------------------------------------|-----------------------------|
|-----------------------------------------|-----------------------------|
|-----------------------------------------|--7---9----------------------|
|-3----5-------7---------------7----------|--5---7---7-------5-7-8-7-5--|
|-1----3-------5-------8-7-8-----8-7-8----|----------5---7-8------------|



Rotten bodies is were it's at,          Friends are gone and rats get fat
|-------------------------------------|---------------------------------|
|-------------------------------------|---------------------------------|
|-------------------------------------|---------------------------------|
|-------------------------------------|--7---9------7--5----------------|
|-3----5-------7--------------7-------|--5---7-----------8-7-5----------|
|-1----3-------5-------8-7-8----8-7-8-|------------------------8-7-5----|



Cross on fire fights the night,              Who will ever see the light   
|------------------------------------------|----------------------------|
|------------------------------------------|----------------------------|
|------------------------------------------|----------------------------|
|------------------------------------------|-7---9----------------------|
|-x-3---x-5-5------7---------------7-------|-5---7---7--------5-7-8-7-5-|
|-x-1---x-3-3------5---------8-7-8---8-7-8-|---------5---7-8------------|

A crowd in front of heaven's gate       December 48,  December 48
|-----------------------------------------|-----------------------------|
|-----------------------------------------|-----------------------------|
|-----------------------------------------|-----------------------------|
|-----------------------------------------|--x-7--x-9-------x-7--x-9----|
|3----5-------7--------------7------------|--x-5--x-7---7-- x-5--x-7----|
|1----3-------5-------8-7-8----8-7-8------|-------------5---------------|




Outro(3:35)
|----------------------------------------------------------------|
|----------------------------------------------------------------|
|----------------------------------------------------------------|
|--------------------10-------------7-- -------------------------|
|-7-(7)---5----------8-----5--------5---5- ------7---5-----------|
|-5-(5)-----8-7-7-----------8-7-----------8-7-7--5 ----7-8-------|



Добавлено: 02.05.2012
Другие материалы по этой песне:
  • Аккорды и текст

Страница создана 02.05.2012
http://primanota.ru/royal-hunt/1348-chords.htm
Привет, Гость.
Предлагаем пройти революционный курс по гитаре.
Подарок от PrimaNota.Ru, забирай!