PrimaNota.ru - самый крупный в мире бесплатный архив песенных текстов, аккордов, табулатур и нот


Royal Hunt - Its Over - текст песни, таба, видео

Регистрация Запомнить меня
Войти через:  Facebook Google Twitter Vk Yandex Mail.ru

Royal Hunt - Its Over - текст песни, таба, видео

Печатать
Просмотров: 199
Авторы музыки: André Andersen
Авторы текста: André Andersen
Song: It's over
Album: Paradox (1997)

* Words and music by André Andersen (1997)

Legend
fb   - full bend (2 frets)
fbr  - full bend then release
hb   - half bend (1 fret)
hbr  - half bend then release
~    - vibrato
T    - Tap
A.H  - artificial harmonic
N.H  - natural harmonic
*..* - repeat everything in between
^^   - depress bar before hitting note then release after note is hit
pm...- palm muting

                   a.h
I------------------------------------------------------------------------------------|
I------------------------------------------------------------------------------------|
I------------------------------------------------------------------------------------|
I-7-(7)-3-3-3-3-2--------------7-(7)-3-3-3-3-2---------------------------------3-2-5-|
I-7-(7)-3-3-3-3-2--------------7-(7)-3-3-3-3-2-----------2-5-----2-5-3-5-2-3-5-5-3-3-|
I-5-(5)-1-1-1-1-0--3-5--4-2-4--5-(5)-1-1-1-1-0--3-5--4-5-----3-5---------------------|

--------------------------------|I
--------------------------------|I
--------------------------------|I
--------------------------------|I
-5-2-------2-5-3-2-3-5-3-2-0-2--|I
-----5-4-5-----5-3-5-6-5-4-2-4--|I

 0.54
I--------------------------------|I
I--------------------------------|I
I--------------------------------|I
I-----------------2--------------|I
I-----------2-3-5--5-3-2-------2-|I
I-0-2-4-5-5--------------5-4-5---|I

0.57
I--------------------------------------------------------------------|
I--------------------------------------------------------------------|
I--------------------------------------------------------------------|
I-5-5----5-----------------------------------------5----5-4-5--------|
I-3-3-xx-2-5-3-5-2------5-5----7-------------3-3-3-3-5--------5-3-2--|
I------------------5-3--4-4-xx-5-8-7-8-5-3-0-1-1-1-------------------|

----------------------------------------------------------------|I
----------------------------------------------------------------|I
----------------------------------------------------------------|I
-5-------5-5----------------------------------------------------|I
-3-3-3-3-3-2-5-3-5-2-----5-5----7--------------3-2-3-5-3-2-0-2--|I
---------------------5-3-4-4-xx-5-8-7-8-5-3-0--5-3-5-6-5-4-2-4--|I


 1.25                a.h
I------------------------------------------------------------------------------------|
I------------------------------------------------------------------------------------|
I------------------------------------------------------------------------------------|
I-7-(7)-3-3-3-3-2--------------7-(7)-3-3-3-3-2---------------------------------3-2-5-|
I-7-(7)-3-3-3-3-2--------------7-(7)-3-3-3-3-2-----------2-5-----2-5-3-5-2-3-5-5-3-3-|
I-5-(5)-1-1-1-1-0--3-5--4-2-4--5-(5)-1-1-1-1-0--3-5--4-5-----3-5---------------------|

-------------------------------------|I
-------------------------------------|I
-------------------------------------|I
-------------------------------------|I
-5-2-------2-5-3-2-3-5-3-2-0-2-2-2-2-|I
-----5-4-5-----5-3-5-6-5-4-2-4-0-0-0-|I

1.59
ah......
I----------|I
I----------|I
I----------|I
I----------|I
I-3-2------|I
I-----4----|I

 2.18
I--------------------------------|I
I--------------------------------|I
I--------------------------------|I
I-----------------2--------------|I
I-----------2-3-5--5-3-2-------2-|I
I-0-2-4-5-5--------------5-4-5---|I

2.22
I--------------------------------------------------------------------|
I--------------------------------------------------------------------|
I--------------------------------------------------------------------|
I-5-5----5-----------------------------------------5----5-4-5--------|
I-3-3-xx-2-5-3-5-2------5-5----7-------------3-3-3-3-5--------5-3-2--|
I------------------5-3--4-4-xx-5-8-7-8-5-3-0-1-1-1-------------------|

---------------------------------------------------------------|
---------------------------------------------------------------|
---------------------------------------------------------------|
-5-------------------------------------------------------------|
-3-3-3-3-3-2-5-3-5-2-----5-5----7--------------3-2-3-5-3-2-0-2-|
---------------------5-3-4-4-xx-5-8-7-8-5-3-0--5-3-5-6-5-4-2-4-|


2.50
Solo acoustic guitar
					 sl. 						sl.
II----------------------------12-I-----------------10------------------------------------------|
II-10-----10-12-13---10-12-13----I--------10/12-------13p12-13--12p10-12-10----10--------------|
II------9------------------------I------9-------9---------------------------12----12----12/14--|
II-------------------------------I-7-10----------------------------------------------10--------|
II-------------------------------I-------------------------------------------------------------|
II-------------------------------I-------------------------------------------------------------|

--------------------------------I--------------------------------------------------I--13--12---|
--------------------------------I--------------------------------------------------I-----------|
--------------------------------I--------------------------------------------------I-----------|
-12h13p12p10-12--10----10-------I-------------------12-14-15--14-12----------14-12-I-----------|
--------------------12----12-12-I----------12-14-15-----------------15-14-15-------I-----------|
--------------------------------I-12-14-15-----------------------------------------I-----------|

---------------------10--12-13-10-12----10-------10---------------|II
-15-13-12---10-12-13-----------------13----12-13----12-13/15-13---|II
------------------------------------------------------------------|II
------------------------------------------------------------------|II
------------------------------------------------------------------|II
------------------------------------------------------------------|II
Добавлено: 11.03.2012
Другие материалы по этой песне:
  • Аккорды и текст

Страница создана 11.03.2012
http://primanota.ru/royal-hunt/its-over-chords.htm
Привет, Гость.
Предлагаем пройти революционный курс по гитаре.
Подарок от PrimaNota.Ru, забирай!