PrimaNota.ru - самый крупный в мире бесплатный архив песенных текстов, аккордов, табулатур и нот


Rodrigo Y Gabriela - Orion - таба, видео

Регистрация Запомнить меня
Войти через:  Facebook Google Twitter Vk Yandex Mail.ru

Rodrigo Y Gabriela - Orion - таба, видео

Печатать
Просмотров: 436
Уроки эстрадного вокала в Санкт-Петербурге
Авторы музыки: James Hetfield, Cliff Burton, Lars Ulrich

Rodrigo Y Gabriela  -  Orion  (cover, original by Metallica)



   Part 1 - Rodrigo

e|------0-----0---------0-----0--------------------------------------|
B|------0-----0---------0-----0---------3-----3---------4-----4------|
G|----0-----0-----0---0-----0-----0-----2-----2---------4-----4------|
D|--2-----2-----2---2-----2-----2-----4-----4-----4---4-----4-----4--|
A|----------------------------------5-----5-----5---6-----6-----6----|
E|-------------------------------------------------------------------|



   Part 2 - Rodrigo

e|-------------------------------------------------------------------------------|
B|-------------------------------------------------------------------------------|
G|-------------------------------------------------------------------------------|
D|-------------------------------------------------------------------------------|
A|--5h7-x-x-5h7-x-x-5h7-x-5h7-x-x-5h7-x-x-5h7-x-5-x-x-5-x-x-5-5-6-x-x-6-x-x-6-6--|
E|--0---x-x-0---x-x-0---x-0---x-x-0---x-x-0---x-7-x-x-7-x-x-7-7-7-x-x-7-x-x-7-7--|



   Part 3 - Gabriela

e|-----------------------------------------------|
B|-----------------------------------------------|
G|-----------------------------------------------|
D|---xxxx--7---9---10--------xxxx--10---9---7----|
A|---xxxx--7---7---10--------xxxx--10---7---7----|
E|---xxxx--5---7---8---------xxxx--8----7---5----|

e|-----------------------------------------------------|
B|-----------------------------------------------------|
G|-----------------------------------------------------|
D|---7---9---10----2-3-2-2----10---9---7----2-3-2-2----|
A|---7---7---10----2-3-2-2----10---7---7----2-3-2-2----|
E|---5---0---8-----0-1-0-0----8----0---5----0-1-0-0----|




Tabbed by NintEndO
Добавлено: 07.07.2012
Другие материалы по этой песне:

Страница создана 27.03.2012
http://primanota.ru/rodrigo-y-gabriela/orion-chords.htm
Привет, Гость.
Предлагаем пройти революционный курс по гитаре.
Подарок от PrimaNota.Ru, забирай!