PrimaNota.ru - самый крупный в мире бесплатный архив песенных текстов, аккордов, табулатур и нот


Rodrigo Y Gabriela - Tamacun - таба, видео

Регистрация Запомнить меня
Войти через:  Facebook Google Twitter Vk Yandex Mail.ru

Rodrigo Y Gabriela - Tamacun - таба, видео

Печатать
Просмотров: 1451
Авторы музыки: Rodrigo Sánchez, Gabriela Quintero

here he does two down stokes and one upstroke on the e string
e|---0--0--0--0-0---0--0--0--0-0---0--0--0--0-0----0--0--0--0-----------------| X2
B|--0--0--0--0-----0--0--0--0-----0--0--0--0------0--0--0--0------------------|
G|-5--5--4--4--4--5--5--7--7--7--5--5--4--4--4---5--5--9--9-------------------|
D|----------------------------------------------------------------------------|
A|----------------------------------------------------------------------------|
E|----------------------------------------------------------------------------|

e|-----10-12-13-13-13-12-12-12-10-10-10-8-8-8-7-8-10-8-7--------------------|
B|---10--------------------------------------------------10-9---------------|
G|-10---------------------------------------------------------10-9-7--------|
D|--------------------------------------------------------------------------|
A|--------------------------------------------------------------------------|
E|--------------------------------------------------------------------------|

e|---7-10-8-7h8-7-----------------------------------------------------------|
B|--9----------10----------------12-15-13-12--------------------------------|
G|-9---------------------------13------------14-13-10-----------------------|
D|------------------------12-14----------------------14-12-10---------------|
A|-------------------11-14------------------------------------14------------|
E|----------------12--------------------------------------------------------|

e|------------------12-12-12---------13-13-13-12-12-12----------------------|
B|15-15-15-13-13-13----------15-15-15---------------------------------------|
G|--------------------------------------------------------------------------|
D|--------------------------------------------------------------------------|
A|--------------------------------------------------------------------------|
E|--------------------------------------------------------------------------|

e|-16-15-13-15-12h13-12-13-15-13-12-13-12-10-12-13-12-10-12-10-8-10-12-10-8-10-7----|
B|----------------------------------------------------------------------------------|
G|----------------------------------------------------------------------------------|
D|----------------------------------------------------------------------------------|
A|----------------------------------------------------------------------------------|
E|----------------------------------------------------------------------------------|

e|-8------8-10-8-8------8-12-8-8------8-10-8-0-10-12-10-0-8-10-8------------|
B|--10--10--------10--10--------10--10--------------------------------------|
G|----10------------10------------10----------------------------------------|
D|--------------------------------------------------------------------------|
A|--------------------------------------------------------------------------|
E|--------------------------------------------------------------------------|

e|-7---7-8-7-7---7-10-7-7---7-8-7-0-8-10-8-0-7-8-7--------------------------|
B|--9-9-------9-9--------9-9------------------------------------------------|
G|---9---------9----------9-------------------------------------------------|
D|--------------------------------------------------------------------------|
A|--------------------------------------------------------------------------|
E|--------------------------------------------------------------------------|

e|-5---5-7-5-5---5-8-5-5---5-7-5-0-7-8-7-0-5-7-5-0--------------------------|
B|--6-6-------6-6-------6-6-------------------------------------------------|
G|---7---------7---------7--------------------------------------------------|
D|--------------------------------------------------------------------------|
A|--------------------------------------------------------------------------|
E|--------------------------------------------------------------------------|

e|4-5-4-0-5-7-5-0-7-8-7-0-8-10-8-0-12-12-12-12-13-13-13-13-15-15-15-15-16-----|
B|----------------------------------------------------------------------------|
G|----------------------------------------------------------------------------|
D|----------------------------------------------------------------------------|
A|----------------------------------------------------------------------------|
E|----------------------------------------------------------------------------|

back into
e|12---------------|--------------------|12-------------12|
B|--13--12-13-15-13|-12-13-12h13--------|--13--12-13-15---|
G|----14-----------|------------14-12-14|----14-----------|
D|-----------------|14------------------|-----------------|
A|-----------------|--------------------|-----------------|
E|-----------------|--------------------|-----------------|
Добавлено: 14.04.2012
Другие материалы по этой песне:

Страница создана 26.02.2012
http://primanota.ru/rodrigo-y-gabriela/tamacun-chords.htm
Привет, Гость.
Предлагаем пройти революционный курс по гитаре.
Подарок от PrimaNota.Ru, забирай!