PrimaNota.ru - самый крупный в мире бесплатный архив песенных текстов, аккордов, табулатур и нот


Rodrigo Y Gabriela - New One - таба, видео

Регистрация Запомнить меня
Войти через:  Facebook Google Twitter Vk Yandex Mail.ru

Rodrigo Y Gabriela - New One - таба, видео

Печатать
Просмотров: 295
Уроки эстрадного вокала в Санкт-Петербурге
Авторы музыки: Rodrigo y Gabriela

-------------------------------------------------------------------------------
                             New One – Rodrigo y Gabriela
-------------------------------------------------------------------------------
Tabbed by: Christopher Borck
Email: christopherborck0@gmail.com

Tuning: Normal Tuning
- This is the tab for Gabriela's Part in the refrain.
* Parts of this require Spanish flamenco techniques to get the proper fluidity while strumming
** When there are 8 chords directly in a row its wise to use the rosquedo technique – 
when mastered it makes the strumming a lot easier because of the speed needed
*** x means you should hit the strings of the guitar

This is the intro to the refrain:
e|-------3------5-----5------5----x-----5-----5-5-x-5-5-5--|
B|-------3------5-----6------5----x-----6-----6-6-x-6-6-6--|
G|-------3------5-----5------5----x-----5-----5-5-x-5-5-5--|
D|-------3------5-----7------5----x-----7-----7-7-x-7-7-7--|
A|-------5------7-----5------7----x-----5-----5-5-x-5-5-5--|
E|--------3------5------------5----x-----------------------|

Part 1

e|------3-----3-3-x-3-3-3--------3-3-3-3-3-3-3-3-----x-----3-3-3---|
B|------3-----3-3-x-3-3-3--------3-3-3-3-3-3-3-3-----x-----3-3-3---|
G|------3-----3-3-x-3-3-3--------3-3-3-3-3-3-3-3-----x-----3-3-3---|
D|------3-----3-3-x-3-3-3--------3-3-3-3-3-3-3-3-----x-----3-3-3---|
A|------5-----5-5-x-5-5-5--------5-5-5-5-5-5-5-5-----x------5-5-5--|
E|-------3-----3-3-x-3-3-3-------3-3-3-3-3-3-3-3------x-----3-3-3--|


e|------3------3-3-x-3-3-3--------3-3-3-3-3-3-3-3-----x-----3-3-3--|
B|------5------5-5-x-5-5-5--------5-5-5-5-5-5-5-5-----x-----5-5-5--|
G|------5------5-5-x-5-5-5--------5-5-5-5-5-5-5-5-----x-----5-5-5--|
D|------5------5-5-x-5-5-5--------5-5-5-5-5-5-5-5-----x-----5-5-5--|
A|------3------3-3-x-3-3-3--------3-3-3-3-3-3-3-3-----x-----3-3-3--|
E|--------------------------------------------------------------x--|




e|------5------5-5-x-5-5-5-------5-5-5-5-5-5-5-5-------x----5-5-5--|
B|------5------5-5-x-5-5-5-------5-5-5-5-5-5-5-5-------x----5-5-5--|
G|------5------5-5-x-5-5-5-------5-5-5-5-5-5-5-5-------x----5-5-5--|
D|------5------5-5-x-5-5-5-------5-5-5-5-5-5-5-5-------x----5-5-5--|
A|------7------7-7-x-7-7-7-------7-7-7-7-7-7-7-7-------x----7-7-7--|
E|------5------5-5-x-5-5-5--------5-5-5-5-5-5-5-5------x----5-5-5--|

e|------5------5-5-x-5-5-5-------5-5-5-5-5-5-5-5-------x----5-5-5--|
B|------5------5-5-x-5-5-5-------5-5-5-5-5-5-5-5-------x----5-5-5--|
G|------5------5-5-x-5-5-5-------5-5-5-5-5-5-5-5-------x----5-5-5--|
D|------5------5-5-x-5-5-5-------5-5-5-5-5-5-5-5-------x----5-5-5--|
A|------7------7-7-x-7-7-7-------7-7-7-7-7-7-7-7-------x----7-7-7--|
E|------5------5-5-x-5-5-5--------5-5-5-5-5-5-5-5------x----5-5-5--|



e|-----1-------1-1-x-1-1-1--------1-1-1-1-1-1-1-1------x----1-1-1----|
B|-----3-------3-3-x-3-3-3--------3-3-3-3-3-3-3-3------x----3-3-3----|
G|-----2-------2-2-x-2-2-2--------2-2-2-2-2-2-2-2------x----2-2-2----|
D|-----3-------3-3-x-3-3-3--------3-3-3-3-3-3-3-3------x----3-3-3----|
A|-----1-------1-1-x-1-1-1--------1-1-1-1-1-1-1-1------x----1-1-1----|
E|-------------------x--------------------------------------------x--|

e|-----3-------3-3--x-------5-----5--x--5-5-5---|
B|-----3-------3-3--x-------5-----5--x--5-5-5---|
G|-----3-------3-3-x--------6-----6--x--6-6-6---|
D|-----3-------3-3-x--------5-----5--x--5-5-5---|
A|-----5-------5-5-x--------7-----7--x--7-7-7---|
E|------3------3-3-x---------5----5--x---5-5-5--|

e|------5------5-5-x-5-5-5---------5-5-5-5-5-5-5-5--------x-----5-5-5--|
B|------6------6-6-x-6-6-6---------6-6-6-6-6-6-6-6--------x-----6-6-6--|
G|------5------5-5-x-5-5-5---------5-5-5-5-5-5-5-5--------x-----5-5-5--|
D|------7------7-7-x-7-7-7---------7-7-7-7-7-7-7-7--------x-----7-7-7--|
A|------5------5-5-x-5-5-5---------5-5-5-5-5-5-5-5--------x-----5-5-5--|
E|------------------------------------------------------------------x--|




e|------5------5-5-x-5-5-5---------5-5-5-5-5-5-5-5--------x-----5-5-5--|
B|------6------6-6-x-6-6-6---------6-6-6-6-6-6-6-6--------x-----6-6-6--|
G|------5------5-5-x-5-5-5---------5-5-5-5-5-5-5-5--------x-----5-5-5--|
D|------7------7-7-x-7-7-7---------7-7-7-7-7-7-7-7--------x-----7-7-7--|
A|------5------5-5-x-5-5-5---------5-5-5-5-5-5-5-5--------x-----5-5-5--|
E|------------------------------------------------------------------x--|




e|--0-------0-0-x-0-0-0------------0-0-0-0-0-0-0-0--------x-----0-0-0--|
B|--0-------0-0-x-0-0-0------------0-0-0-0-0-0-0-0--------x-----0-0-0--|
G|--1-------1-1-x-1-1-1------------1-1-1-1-1-1-1-1--------x-----1-1-1--|
D|--0-------0-0-x-0-0-0------------0-0-0-0-0-0-0-0--------x-----0-0-0--|
A|--2-------2-2-x-2-2-2------------2-2-2-2-2-2-2-2--------x-----2-2-2--|
E|--0-------0-0-x-0-0-0------------0-0-0-0-0-0-0-0---------x----0-0-0--|

e|--0-------0-0-x-0-0-0------------0-0-0-0-0-0-0-0--------x-----0-0-0--|
B|--0-------0-0-x-0-0-0------------0-0-0-0-0-0-0-0--------x-----0-0-0--|
G|--1-------1-1-x-1-1-1------------1-1-1-1-1-1-1-1--------x-----1-1-1--|
D|--0-------0-0-x-0-0-0------------0-0-0-0-0-0-0-0--------x-----0-0-0--|
A|--2-------2-2-x-2-2-2------------2-2-2-2-2-2-2-2--------x-----2-2-2--|
E|--0-------0-0-x-0-0-0------------0-0-0-0-0-0-0-0---------x----0-0-0--|

e|--0-------0-0-x-0-0-0-------------0-0-0-0-0-0-0-0-0-0-0-0-0--|
B|--2-------2-2-x-2-2-2-------------2-2-2-2-2-2-2-2-2-2-2-2-2--|
G|--0-------0-0-x-0-0-0-------------0-0-0-0-0-0-0-0-0-0-0-0-0--|
D|--2-------2-2-x-2-2-2-------------2-2-2-2-2-2-2-2-2-2-2-2-2--|
A|--0-------0-0-x-0-0-0-------------0-0-0-0-0-0-0-0-0-0-0-0-0--|
E|-------------------------------------------------------------|


e|------3-----3-3-x-3-3-3--------3-3-3-3-3-3-3-3-----x-----3-3-3---|
B|------3-----3-3-x-3-3-3--------3-3-3-3-3-3-3-3-----x-----3-3-3---|
G|------3-----3-3-x-3-3-3--------3-3-3-3-3-3-3-3-----x-----3-3-3---|
D|------3-----3-3-x-3-3-3--------3-3-3-3-3-3-3-3-----x-----3-3-3---|
A|------5-----5-5-x-5-5-5--------5-5-5-5-5-5-5-5-----x------5-5-5--|
E|-------3-----3-3-x-3-3-3-------3-3-3-3-3-3-3-3------x-----3-3-3--|



e|------5------5-5-x-5-5-5-------5-5-5-5-5-5-5-5-------x----5-5-5--|
B|------5------5-5-x-5-5-5-------5-5-5-5-5-5-5-5-------x----5-5-5--|
G|------5------5-5-x-5-5-5-------5-5-5-5-5-5-5-5-------x----5-5-5--|
D|------5------5-5-x-5-5-5-------5-5-5-5-5-5-5-5-------x----5-5-5--|
A|------7------7-7-x-7-7-7-------7-7-7-7-7-7-7-7-------x----7-7-7--|
E|------5------5-5-x-5-5-5--------5-5-5-5-5-5-5-5------x----5-5-5--|

e|------5------5-5-x-5-5-5---------5-5-5-5-5-5-5-5--------x-----5-5-5--|
B|------6------6-6-x-6-6-6---------6-6-6-6-6-6-6-6--------x-----6-6-6--|
G|------5------5-5-x-5-5-5---------5-5-5-5-5-5-5-5--------x-----5-5-5--|
D|------7------7-7-x-7-7-7---------7-7-7-7-7-7-7-7--------x-----7-7-7--|
A|------5------5-5-x-5-5-5---------5-5-5-5-5-5-5-5--------x-----5-5-5--|
E|------------------------------------------------------------------x--|

e|-------5------x-------5-----5-x-5-5-5-------------------------------------------------|
B|-------5------x-------6-----6-x-6-6-6-------------------------------------------------|
G|-------5------x------5------5-x-6-6-6-------------------------------------------------|
D|-------5------x------7------7-x-7-7-7-------------------------------------------------|
A|-------7------x------5------5-x-7-7-7-------------------------------------------------|
E|-------5------x-----------------------------------------------------------------------|

Go back to Part 1 and repeat as many times as they do…the speed makes it hard but with 
practice you'll get it




************************************

| /   slide up
| \   slide down
| h   hammer-on
| p   pull-off
| ~   vibrato
| +   harmonic
| x   Mute note
| b   Bend
| pb  Pre-bend
| br  Bend release
| pbr Pre-bend release
| brb Bend release bend
|   x      Hit Strings

************************************
Добавлено: 13.06.2012
Другие материалы по этой песне:
  • Аккорды и текст

Страница создана 13.06.2012
http://primanota.ru/rodrigo-y-gabriela/new-one-chords.htm
Привет, Гость.
Предлагаем пройти революционный курс по гитаре.
Подарок от PrimaNota.Ru, забирай!