PrimaNota.ru - самый крупный в мире бесплатный архив песенных текстов, аккордов, табулатур и нот


Rob Scallon - Le Gentil - бас-таба, видео

Регистрация Запомнить меня
Войти через:  Facebook Google Twitter Vk Yandex Mail.ru

Rob Scallon - Le Gentil - бас-таба, видео

Печатать
Просмотров: 70
Title: Le Gentil & the Transit of Venus
Artist: Rob Scallon
Tempo = varies
Electric Bass

Legend
L - tied note
x - dead note
h - hammer on/pull off
b - bend
s - slide
~ - vibrato
g - ghost note
> - accentuated note
t - trill
M - palm mute
. - staccato
P - popping (bass)
S - slapping (bass)
+ - tapping
W - wide vibrato
< - fade in
w - whammy bar
= - tremolo picking
v - brush up
^ - brush down
V - pick stroke up
n - pick stroke down

                                                                        
F#||----------12---------|-----------12---------|-----------12---------|
D ||o------------12------|--------------12------|--------------12------|
A ||o---------------12---|-----------------12---|-----------------12---|
E ||-10------------------|--10------------------|--10------------------|

                                                                     
-----------12--------|||----------12---------|-----------12---------|
--------------12----o|||o------------12------|--------------12------|
-----------------12-o|||o---------------12---|-----------------12---|
--10-----------------|||-7-------------------|--7-------------------|

                                                                     
-----------12---------|----------------------|-----------12---------|
--------------12------|----------------------|--------------12------|
-----------------12---|--------12-12----12---|-----------------12---|
--7-------------------|--7-------------------|--10------------------|

                                                                     
-----------12---------|-----------12---------|-----------12--------||
--------------12------|--------------12------|--------------12----o||
-----------------12---|-----------------12---|-----------------12-o||
--10------------------|--10------------------|--10-----------------||

                                                                     
-----------12---------||-5--------5----------|--5--------5----------|
--------------0g------||o------------0-------|--------------0-------|
-----------------0g---||o---------------0----|-----------------0----|
--10------------------||-3--------3----------|--3--------3----------|

                                                                                
--7--------7----------|--7s-3----|-----------0----------|-----------0----------|
--------------0-------|----------|--0>----------0-------|--------------0-------|
-----------------0----|----------|-----------------0----|-----------------0----|
--5--------5----------|--5s-2----|----------------------|--10------------------|

                                                                     
-----------0----------|-----------0---------||-----------12---------|
--------------0-------|--------------0-----o||--------------12------|
-----------------0----|-----------------0--o||-----------------12---|
--10------------------|--10-----------------||--10------------------|

                                                                      
-----------12---------|-----------12---------|-----------12---------||
--------------12------|--------------12------|--------------12------||
-----------------12---|-----------------12---|-----------------12---||
--10------------------|--10------------------|--10------------------||

                                                                    
----------12---------|-----------12---------|-----------12---------|
o------------12------|--------------12------|--------------12------|
o---------------12---|-----------------12---|-----------------12---|
-7-------------------|--7-------------------|--7-------------------|

                                                                     
----------------------|-----------12---------|-----------12---------|
----------------------|--------------12------|--------------12------|
--------12-12----12---|-----------------12---|-----------------12---|
--7-------------------|--10------------------|--10------------------|

                                                                                
-----------12---------|-----------12--------||-----------12---------|----------|
--------------12------|--------------12----o||--------------12------|-----12---|
-----------------12---|-----------------12-o||-----------------12---|----------|
--10------------------|--10-----------------||--7-------------------|--7-------|

                                                                     
-----------12---------|----------------------|-----------12---------|
--------------12------|----------------------|--------------12------|
-----------------12---|--------12-12----12---|-----------------12---|
--7-------------------|--7-------------------|--10------------------|

                                                                      
-----------12---------|-----------12---------|-----------12---------||
--------------12------|--------------12------|--------------0g------||
-----------------12---|-----------------12---|-----------------0g---||
--10------------------|--10------------------|--10------------------||

                                                                               
-5--------5----------|--5--------5----------|--7--------7----------|--7s-3----|
o------------0-------|--------------0-------|--------------0-------|----------|
o---------------0----|-----------------0----|-----------------0----|----------|
-3--------3----------|--3--------3----------|--5--------5----------|--5s-2----|

                                                                     
-----------0----------|-----------0----------|-----------0----------|
--0>----------0-------|--------------0-------|--------------0-------|
-----------------0----|-----------------0----|-----------------0----|
----------------------|--10------------------|--10------------------|

                                                                                
-----------0---------||--5--------5----------|--5s-8----|--7--------7----------|
--------------0-----o||--------------0-------|----------|--------------0-------|
-----------------0--o||-----------------0----|----------|-----------------0----|
--10-----------------||--3--------3----------|--3s-7----|--5--------5----------|

                                                                                
--7s-8-----8s-10------|--12-------12---------|--10s15---|--13-------13---------|
-----0--------0-------|--------------0-------|----------|--------------0-------|
--------0--------0----|-----------------0----|----------|-----------------0----|
--5s-7-----7s-9-------|--10-------10---------|--9s-14---|--12-------12---------|

                                                                                
--13-------13---------|--13-------13---------|--13-12---|-----------0----------|
--------------0-------|--------------0-------|----------|--------------0-------|
-----------------0----|-----------------0----|----------|-----------------0----|
--12-------12---------|--12-------12---------|--12------|--10------------------|

                                                                     
-----------0----------|-----------0----------|-----------0----------|
--------------0-------|--------------0-------|--------------0-------|
-----------------0----|-----------------0----|-----------------0----|
--10------------------|--10------------------|--10------------------|

                                                                     
-----------12---------|-----------12---------|-----------12---------|
--------------12------|--------------12------|--------------12------|
-----------------12---|-----------------12---|-----------------12---|
--10------------------|--10------------------|--10------------------|

                                                                     
-----------12---------||----------12---------|-----------12---------|
--------------12------||o------------12------|--------------12------|
-----------------12---||o---------------12---|-----------------12---|
--10------------------||-7-------------------|--7-------------------|

                                                                     
-----------12---------|----------------------|-----------12---------|
--------------12------|----------------------|--------------12------|
-----------------12---|--------12-12----12---|-----------------12---|
--7-------------------|--7-------------------|--10------------------|

                                                                     
-----------12---------|-----------12---------|-----------12--------||
--------------12------|--------------12------|--------------12----o||
-----------------12---|-----------------12---|-----------------12-o||
--10------------------|--10------------------|--10-----------------||

                                                                                
-----------12---------|----------|-----------12---------|----------------------|
--------------12------|-----12---|--------------12------|----------------------|
-----------------12---|----------|-----------------12---|--------12-12----12---|
--7-------------------|--7-------|--7-------------------|--7-------------------|

                                                                     
-----------12---------|-----------12---------|-----------12---------|
--------------12------|--------------12------|--------------12------|
-----------------12---|-----------------12---|-----------------12---|
--10------------------|--10------------------|--10------------------|

                                                                                
-----------12---------|-----------12---------|----------|-----------12---------|
--------------12------|--------------12------|-----12---|--------------12------|
-----------------12---|-----------------12---|----------|--9>-------------12---|
--10------------------|--7-------------------|--7-------|----------------------|

                                                                                
----------|--5--------5----------|--5--------5----------|--7--------7----------|
-----12---|--------------0-------|--------------0-------|--------------0-------|
--9>------|-----------------0----|-----------------0----|-----------------0----|
----------|--3--------3----------|--3--------3----------|--5--------5----------|

                                                                                
--7s-3----|-----------0----------|-----------0----------|-----------0----------|
----------|--0>----------0-------|--------------0-------|--------------0-------|
----------|-----------------0----|-----------------0----|-----------------0----|
--5s-2----|----------------------|--10------------------|--10------------------|

                                                                     
-----------0----------|--5--------5----------|--5--------5----------|
--------------0-------|--------------0-------|--------------0-------|
-----------------0----|-----------------0----|-----------------0----|
--10------------------|--3--------3----------|--3--------3----------|

                                                                     
--7--------7----------|--7s-------3----------|-----------0----------|
--------------0-------|----------------------|--0>----------0-------|
-----------------0----|-----------------0----|-----------------0----|
--5--------5----------|--5s-------2----------|----------------------|

                                                                     
-----------0----------|-----------0----------|-----------0----------|
--------------0-------|--------------0-------|--------------0-------|
-----------------0----|-----------------0----|-----------------0----|
--10------------------|--10------------------|--10------------------|

                                                                                
--5--------5----------|--5s-8----|--7--------7----------|--7s-8-----8s-10------|
--------------0-------|----------|--------------0-------|-----0--------0-------|
-----------------0----|----------|-----------------0----|--------0--------0----|
--3--------3----------|--3s-7----|--5--------5----------|--5s-7-----7s-9-------|

                                                                                
--12-------12---------|--10s15---|--13-------13---------|--13-------13---------|
--------------0-------|----------|--------------0-------|--------------0-------|
-----------------0----|----------|-----------------0----|-----------------0----|
--10-------10---------|--9s-14---|--12-------12---------|--12-------12---------|

                                                                                
--13-------13---------|--15s12---|-----------12---------|-----------12---------|
--------------0-------|----------|--------------12------|--------------12------|
-----------------0----|----------|-----------------12---|-----------------12---|
--12-------12---------|----------|--10------------------|--10------------------|

                                                                     
-----------12---------|-----------12---------|-----------12---------|
--------------12------|--------------12------|--------------12------|
-----------------12---|-----------------12---|-----------------12---|
--10------------------|--10------------------|--10------------------|

                                                                       ^     
-----------12---------|-----------12---------|-----------12---------|--12---|
--------------12------|--------------12------|--------------12------|--12---|
-----------------12---|-----------------12---|-----------------12---|--12---|
--10------------------|--10------------------|--10------------------|--10---|

  ^
--12------------------------------------|----||
--12------------------------------------|----||
--12------------------------------------|----||
--10------------------------------------|----||


Добавлено: 19.12.2013
Другие материалы по этой песне:
  • Аккорды и текст

Страница создана 19.12.2013
http://primanota.ru/rob-scallon/le-gentil-chords.htm
Привет, Гость.
Предлагаем пройти революционный курс по гитаре.
Подарок от PrimaNota.Ru, забирай!