PrimaNota.ru - самый крупный в мире бесплатный архив песенных текстов, аккордов, табулатур и нот


Rob Scallon - Bach Meets Metal Badinerie - бас-таба, видео

Регистрация Запомнить меня
Войти через:  Facebook Google Twitter Vk Yandex Mail.ru

Rob Scallon - Bach Meets Metal Badinerie - бас-таба, видео

Печатать
Просмотров: 56
Title: Bach Meets Metal
Tempo = 122
Electric Bass

Legend
L - tied note
x - dead note
h - hammer on/pull off
b - bend
s - slide
~ - vibrato
g - ghost note
> - accentuated note
t - trill
M - palm mute
. - staccato
P - popping (bass)
S - slapping (bass)
+ - tapping
W - wide vibrato
< - fade in
w - whammy bar
= - tremolo picking
v - brush up
^ - brush down
V - pick stroke up
n - pick stroke down

                                                             
G ||---------------------------|----------------------------|
D ||o2-------------------------|----------------------------|
A ||o------------2-------------|----------------------------|
E ||---------------------------|--3-----------0-------------|
B ||---------------------------|----------------------------|

                                                          
----------------------------|----------------------------|
----------------------------|----------------------------|
----------------------------|----------------------------|
--------3--0--2--0--2--0----|-----2--5--2--3-------------|
--3--5----------------------|--4-----------------5-------|

                                                          
--------0-------------------|----------------------------|
--2--------2--------2-------|----------------------------|
--------------2--------2----|--------2-------------------|
----------------------------|--3--------3--0-------------|
----------------------------|----------------------------|

                                                     
----------------------------------------------------|
----------------------------------------------------|
----------------------------------------------------|
--3-----------3-----------3--3--3--3--3-------------|
----------------------------------------------------|

                                                     
----------------------------------------------------|
----------------------------------------------------|
----------------------------------------------------|
--5-----------3-----------3--5--3--3--2-------------|
----------------------------------------------------|

                                                     
----------------------------------------------------|
----------------------------------------------------|
--2-----------2-----------2--2--2--2--2-------------|
----------------------------------------------------|
----------------------------------------------------|

                                                     
----------------------------------------------------|
--5-------------------------------------------------|
--------------2-----------2--3--2--2--1-------------|
----------------------------------------------------|
----------------------------------------------------|

                                                                                
----------------------------|----------------------------|----------|----------|
----------------------------|----------------------------|----------|----------|
-----2--2--2--2--2--2--2----|--1--4--4--4--4--4--4--4----|----------|----------|
--2-------------------------|----------------------------|----------|----------|
----------------------------|----------------------------|--0--2----|--3--5----|

                                                                  
-------|---------------------------|||---------------------------|
-------|--4-----------------------o|||o------0-------------------|
-------|--------------2-----------o|||o2--------2--------2-------|
--2----|---------------------------|||-------------2--------2----|
-------|---------------------------|||---------------------------|

                               =     =     =     =  =     
----------------------------|----------------------------|
----------------------------|----------------------------|
----------------------------|----------------------------|
--------2-------------------|--1-----0-----5-----4--7----|
--3--------3--0-------------|----------------------------|

  =     =  =  =     =                                     
----------------------------|----------------------------|
----------------------------|----------------------------|
--5-----3--2--3-----0-------|--3-------------------------|
----------------------------|--------------5-------------|
----------------------------|----------------------------|

                                  =        =                =       =     
----------------------------|----------------------------|-------|-------|
----------------------------|----------------------------|-------|-------|
----------------------------|----------------------------|-------|--2----|
--2-------------------------|--2s-3--------3-------------|--5----|-------|
--------------3-------------|----------------------------|-------|-------|

  =       =
-------|-------|-------|----------------------------------------------------|
-------|-------|-------|----------------------------------------------------|
--3----|--5s---|--10s--|--2-----------2-----------2--3--2--2--2-------------|
-------|-------|-------|----------------------------------------------------|
-------|-------|-------|----------------------------------------------------|


----------------------------------------------------|
--5-------------------------------------------------|
--------------2-----------2--3--2--2--0-------------|
----------------------------------------------------|
----------------------------------------------------|


----------------------------------------------------|
----------------------------------------------------|
--0-----------0-----------0--2--0--0--0-------------|
----------------------------------------------------|
----------------------------------------------------|


----------------------------------------------------|
--4-------------------------------------------------|
--------------0-----------0--2--0--0----------------|
--------------------------------------3-------------|
----------------------------------------------------|


----------------------------------------------------|
--2-----------5-----2-----0L-0----------------------|
-----------------------------3L----------------3L---|
----------------------------------------------------|
----------------------------------------------------|


----------------------------------------------------|
----------------------------------------------------|
--3-----------7-----3--2--0L------------------------|
----------------------------------------------------|
----------------------------------------------------|


----------------------------------------------------|
----------------------------------------------------|
--0-----------3--2--0-----------0-----3-----0-------|
-----------------------3--1-------------------------|
----------------------------------------------------|


----------------------------|----------------------------|
--------------1-------------|----------------------------|
----------------------------|----------------------------|
--1--0--1--0----------------|-----------------------2----|
--------------------0-------|--1-----0-----5-----4-------|


----------------------------------------------------|
----------------------------------------------------|
-----------------------------------------------0----|
--5-----------3-----2-----3-----------0--2--3-------|
----------------------------------------------------|


----------------------------|
--------------2-------------|
--2--------2--------2-------|
--------3-------------------|
----------------------------|


--2------------------------------------------------||-------|-------|-------|
--------5-----4-----5-----------------------------o||-------|-------|-------|
--------------------------------------------------o||-------|-------|-------|
--------------------------2--0L----------------0---||-------|-------|-------|
---------------------------------------------------||--8s---|-------|-------|


-------|-------|-------|-------|-------|-------|-------|----------||
-------|-------|-------|-------|-------|-------|-------|----------||
-------|-------|-------|-------|-------|-------|-------|----------||
-------|-------|-------|--0L---|--0L---|--0L---|--0----|--0--0----||
-------|-------|-------|-------|-------|-------|-------|----------||
Добавлено: 02.03.2016
Другие материалы по этой песне:

Страница создана 01.03.2016
http://primanota.ru/rob-scallon/bach-meets-metal-badinerie-chords.htm
Привет, Гость.
Предлагаем пройти революционный курс по гитаре.
Подарок от PrimaNota.Ru, забирай!