PrimaNota.ru - самый крупный в мире бесплатный архив песенных текстов, аккордов, табулатур и нот


Rob Scallon - Progressive Metal Town Usa - таба, видео

Регистрация Запомнить меня
Войти через:  Facebook Google Twitter Vk Yandex Mail.ru

Rob Scallon - Progressive Metal Town Usa - таба, видео

Печатать
Просмотров: 123
Уроки эстрадного вокала в Санкт-Петербурге
Title: Progressive Metal Town, USA
Artist: Rob Scallon & Pete Cottrell
Tempo = 150
Electric Guitar

Legend
L - tied note
x - dead note
h - hammer on/pull off
b - bend
s - slide
~ - vibrato
g - ghost note
> - accentuated note
t - trill
M - palm mute
. - staccato
P - popping (bass)
S - slapping (bass)
+ - tapping
W - wide vibrato
< - fade in
w - whammy bar
= - tremolo picking
v - brush up
^ - brush down
V - pick stroke up
n - pick stroke down

                                                                     
E |----------------------------|-------|----------------------------|
B |----------------------------|-------|----------------------------|
G |--------13----------13L-----|--13---|--------13----------13L-----|
D |----------------------------|-------|----------------------------|
A |-----14----14----12---------|-------|-----14----14----12---------|
E |--0-----------0-------------|-------|--0-----------0-------------|
B |----------------------------|-------|----------------------------|
E |----------------------------|-------|----------------------------|

                                                                     
----------------------------|----------------------------|----------|
----------------------------|----------------------------|----------|
--13L---13-9L-9-------------|--------13----------13L-----|--13L13---|
----------------------------|----------------------------|----------|
----------------------------|-----14----14----12---------|----------|
----------------------------|--0-----------0-------------|----------|
----------------------------|----------------------------|----------|
----------------------------|----------------------------|----------|

                                                                           
----------------------------|----------------|----------------------------|
----------------------------|----------------|----------------------------|
--------13----------13L-----|--13----11s9----|--------13----------13L-----|
----------------------------|----------------|----------------------------|
-----14----14----12---------|-----11L11s9----|-----14----14----12---------|
--0-----------0-------------|----------------|--0-----------0-------------|
----------------------------|----------------|----------------------------|
----------------------------|----------------|----------------------------|

                                                                  
-------|----------------------------|----------------------------|
-------|----------------------------|----------------------------|
--13---|--------13----------13L-----|--13----11-9L-9-------------|
-------|----------------------------|----------------------------|
-------|-----14----14----12---------|----------------------------|
-------|--0-----------0-------------|----------------------------|
-------|----------------------------|----------------------------|
-------|----------------------------|----------------------------|

                                                                     
----------------------------|----------|----------------------------|
----------------------------|----------|----------------------------|
--------13----------13------|--16-13---|--------13----------13L-----|
----------------------------|----------|----------------------------|
-----14----14----12---------|----------|-----14----14----12---------|
--0-----------0-------------|----------|--0-----------0-------------|
----------------------------|----------|----------------------------|
----------------------------|----------|----------------------------|

                                                      
----------------||---------------------------|-------|
----------------||---------------------------|-------|
--13----11s9----||-------13----------13L-----|--13---|
----------------||o--------------------------|-------|
-----11L11s9----||o---14----14----12---------|-------|
----------------||-0-----------0-------------|-------|
----------------||---------------------------|-------|
----------------||---------------------------|-------|

                                                          
----------------------------|----------------------------|
----------------------------|----------------------------|
--------13----------13L-----|--13----11-9L-9-------------|
----------------------------|----------------------------|
-----14----14----12---------|----------------------------|
--0-----------0-------------|----------------------------|
----------------------------|----------------------------|
----------------------------|----------------------------|

                                                                     
----------------------------|----------|----------------------------|
----------------------------|----------|----------------------------|
--------13----------13------|--16-13---|--------13----------13L-----|
----------------------------|----------|----------------------------|
-----14----14----12---------|----------|-----14----14----12---------|
--0-----------0-------------|----------|--0-----------0-------------|
----------------------------|----------|----------------------------|
----------------------------|----------|----------------------------|

                 
---------------||
---------------||
--13----11s9---||
--------------o||
-----11L11s9--o||
---------------||
---------------||
---------------||

                                                                                
--------------------------------------------------------------------------------
--------------------------------------------------------------------------------
-----------11M------------------11M---11M------------11M------------------11M---
--------13M---13M------------13M---13M---13M------13M---13M------------13M---13M
--11M11M---------11M11M11M11M---------------11M11M---------11M11M11M11M---------
--0M----------------0M-0M-------------------0M----------------0M-0M-------------
--------------------------------------------------------------------------------
--------------------------------------------------------------------------------

         
--------|
--------|
11M-----|
---13M--|
--------|
--------|
--------|
--------|

                                                                                
--------------------------------------------------------------------------------
--------------------------------------------------------------------------------
-----------11M------------------11M---11M------------11M------------------11M---
--------13M---13M------------13M---13M---13M------13M---13M------------13M---13M
--11M11M---------11M11M11M11M---------------11M11M---------11M11M11M11M---------
--0M----------------0M-0M-------------------0M----------------0M-0M-------------
--------------------------------------------------------------------------------
--------------------------------------------------------------------------------

                                                              
--------|----------------------------------------------------|
--------|----------------------------------------------------|
11M13---|--13-------13-------13-------13-------13----13-13---|
--------|--11-------11-------11-------11-------11----11-11---|
--------|--12-------12-------12-------12-------12----12-12---|
--------|--0--------0--------0--------0--------0-----0--0----|
--------|----------------------------------------------------|
--------|----------------------------------------------------|

     =  =  =  =  =        =  =  =  =  =  =     =  =  =  =  =        =  =  =  =  
--------------------------------------------------------------------------------
--------------------------------------------------------------------------------
-----------11M------------------11M---11M------------11M------------------11M---
--------13M---13M------------13M---13M---13M------13M---13M------------13M---13M
--11M11M---------11M11M11M11M---------------11M11M---------11M11M11M11M---------
--0M----------------0M-0M-------------------0M----------------0M-0M-------------
--------------------------------------------------------------------------------
--------------------------------------------------------------------------------

=  =          =  =  =  =  =        =  =  =  =  =  =     
--------|----------------------------------------------|
--------|----------------------------------------------|
11M-----|-----------11M------------------11M---11M13---|
---13M--|--------13M---13M------------13M---13M--------|
--------|--11M11M---------11M11M11M11M-----------------|
--------|--0M----------------0M-0M---------------------|
--------|----------------------------------------------|
--------|----------------------------------------------|

                                                     
--------------------0--------0--------0-----0--0----|
--12-------12-------12-------12-------12----12-12---|
--13-------13-------13-------13-------13----13-13---|
--11-------11-------11-------11-------11----11-11---|
--12-------12-------12-------12-------12----12-12---|
--0--------0--------0--------0--------0-----0--0----|
--------------------0--------0--------0-----0--0----|
--------------------------------------0-----0--0----|

     =  =  =  =  =        =  =  =  =  =  =     =  =  =  =  =        =  =  =  =  
--------------------------------------------------------------------------------
--------------------------------------------------------------------------------
-----------11M------------------11M---11M------------11M------------------11M---
--------13M---13M------------13M---13M---13M------13M---13M------------13M---13M
--11M11M---------11M11M11M11M---------------11M11M---------11M11M11M11M---------
--0M----------------0M-0M-------------------0M----------------0M-0M-------------
--------------------------------------------------------------------------------
--------------------------------------------------------------------------------

=  =     
--------|
--------|
11M13---|
--------|
--------|
--------|
--------|
--------|

                                                                                
--------------------------------------------------------0-----------------------
--12-------------------------12-------------------------12----------------------
--13-------------------------13-------------------------13----------------------
--11-------------------------11-------------------------11----------------------
--12-------------------------12-------------------------12----------------------
--0--------------------------0--------------------------0-----------------------
--------------------------------------------------------------------------------
--------------------------------------------------------------------------------

                                                                     
---0--------------------------0-----0-----0-----0-----0-----0-------|
---12-------------------------12----12----12----12----12----12------|
---13-------------------------13----13----13----13----13----13------|
---11-------------------------11----11----11----11----11----11------|
---12-------------------------12----12----12----12----12----12------|
---0--------------------------0-----0-----0-----0-----0-----0-------|
--------------------------------------------------------------------|
--------------------------------------------------------------------|

     =  =  =  =  =        =  =  =  =  =  =  =  =     
----------------------------------------------------|
----------------------------------------------------|
-----------11M------------------8M----------11M-----|
--------13M---13M------------6M----6M----7M----7M---|
--11M11M---------11M11M11M7M----------9M------------|
--0M----------------0M-0M---------------------------|
----------------------------------------------------|
----------------------------------------------------|

     =  =  =  =  =        =  =  =  =  =  =  =  =     
----------------------------------------------------|
----------------------------------------------------|
-----------11M------------------13M---13-14-13------|
--------13M---13M------------11M---11M---------14---|
--11M11M---------11M11M11M12M-----------------------|
--0M----------------0M-0M---------------------------|
----------------------------------------------------|
----------------------------------------------------|

     =  =  =  =  =        =  =  =  =  =  =  =  =     
----------------------------------------------------|
----------------------------------------------------|
-----------11M------------------8M----------11M13---|
--------13M---13M------------6M----6M----7M---------|
--11M11M---------11M11M11M7M----------9M------------|
--0M----------------0M-0M---------------------------|
----------------------------------------------------|
----------------------------------------------------|

                                                      
--------------------0-------------------------------||
--12-------12-------12------------------------------||
--13-------13-------13------------------------------||
--11-------11-------11------------------------------||
--12-------12-------12------------------------------||
--0--------0--------0-------------------------------||
----------------------------------------------------||
-----------------------------5s-------0-------------||

    =  =  =  =  =        =  =  =  =  =  =     
--------------------------------------------||
--------------------------------------------||
--------------------------------------------||
o------------------------------------------o||
o---------9--------------------9-----9-----o||
-------11----11-------------11----11----11--||
----9-----------9--------9------------------||
-0-----------------0--0---------------------||

     =  =  =  =  =        =  =  =  =  =  =     
----------------------------------------------|
----------------------------------------------|
----------------------------------------------|
----------------------------------------------|
-----------9--------------------9-----9--11---|
--------11----11-------------11----11---------|
-----9-----------9--------9-------------------|
--0-----------------0--0----------------------|

                                                                                
--------------------------------------------------------------------------------
--------------------------------------------------------------------------------
--------------------------------------------------------------------------------
--------------------------------------------------------------------------------
--11-------------------------11-------------------------11----------------------
--9--------------------------9--------------------------9-----------------------
--10-------------------------10-------------------------9-----------------------
--------------------------------------------------------9-----------------------

                                                                     
--------------------------------------------------------------------|
--------------------------------------------------------------------|
--------------------------------------------------------------------|
--------------------------------------------------------------------|
---11-------------------------11------------------------------------|
---9--------------------------9-----------5M----------4M------------|
---9--------------------------9-----------5M----------4M------------|
---9--------------------------9-----------5M----------4M------------|

     =  =  =  =  =        =  =  =  =  =  =     
----------------------------------------------|
----------------------------------------------|
----------------------------------------------|
----------------------------------------------|
-----------9--------------------9-----9-------|
--------11----11-------------11----11----11---|
-----9-----------9--------9-------------------|
--0-----------------0--0----------------------|

     =  =  =  =  =        =  =  =  =  =  =     
----------------------------------------------|
----------------------------------------------|
----------------------------------------------|
----------------------------------------------|
-----------9--------------------9-----9--11---|
--------11----11-------------11----11---------|
-----9-----------9--------9-------------------|
--0-----------------0--0----------------------|

                                                                                
--------------------------------------------------------------------------------
--------------------------------------------------------------------------------
--------------------------------------------------------------------------------
--------------------------------------------------------------------------------
--11-------------------------11-------------------------11----------------------
--9--------------------------9--------------------------9-----------------------
--10-------------------------10-------------------------9-----------------------
--------------------------------------------------------9-----------------------

                                                                     
--------------------------------------------------------------------|
--------------------------------------------------------------------|
--------------------------------------------------------------------|
--------------------------------------------------------------------|
---11-------------------------11------------------------------------|
---9--------------------------9-----------5M----------4M------------|
---9--------------------------9-----------5M----------4M------------|
---9--------------------------9-----------5M----------4M------------|

                                                                                
--------------------------------------------------------------------------------
--------------------------------------------------------------------------------
--------------------13-13-------------------------------------13-13-------13-13-
--------------11-11-------11-11-------------------------11-11-------11-11-------
--------12-12-------------------12-12-------------12-12-------------------------
--5-----------------------------------5-----5-----------------------------------
--5-----------------------------------5-----5-----------------------------------
--5-----------------------------------5-----5-----------------------------------

                                                                                
--------------------------------------------------------------------------------
--------------------------------------------------------------------------------
------------------------13-13---------------------------------------------------
11-11-------------11-11-------11-11---------------------------------------------
------------12-12-------------------12-12---------------------------------------
------5-----------------------------------5-----5-----------5-----------5-------
------5-----------------------------------5-----5-----------5-----------5-------
------5-----------------------------------5-----5-----------5-----------5-------

 
|
|
|
|
|
|
|
|

                                                                                
--------------------------------------------------------------------------------
--------------------------------------------------------------------------------
--------------------13-13-------------------------------------13-13-------13-13-
--------------11-11-------11-11-------------------------11-11-------11-11-------
--------12-12-------------------12-12-------------12-12-------------------------
--5-----------------------------------5-----5-----------------------------------
--5-----------------------------------5-----5-----------------------------------
--5-----------------------------------5-----5-----------------------------------

                                                                                
--------------------------------------------------------------------------------
--------------------------------------------------------------------------------
------------------------13-13---------------------------------------------------
11-11-------------11-11-------11-11---------------------------------------------
------------12-12-------------------12-12---------------------------------------
------5-----------------------------------5-------------------------------------
------5-----------------------------------5-----4M----2M----0M------------------
------5-----------------------------------5-----4M----2M----0M------------------

 
|
|
|
|
|
|
|
|

                                                                                
--------------------------------------------------------------------------------
--------------------------------------------------------------------------------
--------------------8--8--------------------------------------8--8--------8--8--
--------------6--6--------6--6--------------------------6--6--------6--6--------
--------7--7--------------------7--7--------------7--7--------------------------
--0-----------------------------------0-----0-----------------------------------
--0-----------------------------------0-----0-----------------------------------
--0-----------------------------------0-----0-----------------------------------

                                                                                
--------------------------------------------------------------------------------
--------------------------------------------------------------------------------
------------------------8--8----------------------------------------------------
6--6--------------6--6--------6--6----------------------------------------------
------------7--7--------------------7--7----------------------------------------
------0-----------------------------------0-----0-----------0-----2-------------
------0-----------------------------------0-----0-----------0-----2-------------
------0-----------------------------------0-----0-----------0-----2-------------

 
|
|
|
|
|
|
|
|

                                                                                
--------------------------------------------------------------------------------
--------------------------------------------------------------------------------
--------------------8--8--------------------------------------8--8--------8--8--
--------------6--6--------6--6--------------------------6--6--------6--6--------
--------7--7--------------------7--7--------------7--7--------------------------
--0-----------------------------------0-----0-----------------------------------
--0-----------------------------------0-----0-----------------------------------
--0-----------------------------------0-----0-----------------------------------

                                                                                
--------------------------------------------------------------------------------
--------------------------------------------------------------------------------
------------------------8--8--------------------------------9--9--11-11-13-13---
6--6--------------6--6--------6--6--------------------6--6----------------------
------------7--7--------------------7--7--------7--7----------------------------
------2-----------------------------------4-------------------------------------
------2-----------------------------------4-------------------------------------
------2-----------------------------------4-------------------------------------

 
|
|
|
|
|
|
|
|

                                                                                
--------------------------------------------------------------------------------
--------------------------------------------------------------------------------
--------------------13-13-------------------------------------13-13-------13-13-
--------------11-11-------11-11-------------------------11-11-------11-11-------
--------12-12-------------------12-12-------------12-12-------------------------
--5-----------------------------------5-----5-----------------------------------
--5-----------------------------------5-----5-----------------------------------
--5-----------------------------------5-----5-----------------------------------

                                                                                
--------------------------------------------------------------------------------
--------------------------------------------------------------------------------
------------------------13-13---------------------------------------------------
11-11-------------11-11-------11-11---------------------------------------------
------------12-12-------------------12-12---------------------------------------
------5-----------------------------------5-----4-----------2-----------4-------
------5-----------------------------------5-----4-----------2-----------4-------
------5-----------------------------------5-----4-----------2-----------4-------

 
|
|
|
|
|
|
|
|

                                                                                
--------------------------------------------------------------------------------
--------------------------------------------------------------------------------
--------------------13-13-------------------------------------13-13-------13-13-
--------------11-11-------11-11-------------------------11-11-------11-11-------
--------12-12-------------------12-12-------------12-12-------------------------
--5-----------------------------------5-----5-----------------------------------
--5-----------------------------------5-----5-----------------------------------
--5-----------------------------------5-----5-----------------------------------

                                                                                
--------------------------------------------------------------------------------
--------------------------------------------------------------------------------
------------------------13-13---------------------------------------------------
11-11-------------11-11-------11-11---------------------------------------------
------------12-12-------------------12-12---------------------------------------
------5-----------------------------------5-----4-----------2-----------4-------
------5-----------------------------------5-----4-----------2-----------4-------
------5-----------------------------------5-----4-----------2-----------4-------

 
|
|
|
|
|
|
|
|

                                                                                
--------------------------------------------------------------------------------
--------------------------------------------------------------------------------
--------------------8--8--------------------------------------8--8--------8--8--
--------------6--6--------6--6--------------------------6--6--------6--6--------
--------7--7--------------------7--7--------------7--7--------------------------
--0-----------------------------------0-----0-----------------------------------
--0-----------------------------------0-----0-----------------------------------
--0-----------------------------------0-----0-----------------------------------

                                                                                
--------------------------------------------------------------------------------
--------------------------------------------------------------------------------
------------------------8--8----------------------------------------------------
6--6--------------6--6--------6--6----------------------------------------------
------------7--7--------------------7--7----------------------------------------
------0-----------------------------------0-----0-----------0-------------------
------0-----------------------------------0-----0-----------0-------------------
------0-----------------------------------0-----0-----------0-------------------

 
|
|
|
|
|
|
|
|

                                                                                
--------------------------------------------------------------------------------
--------------------------------------------------------------------------------
--------------------8--8--------------------------------------8--8--------8--8--
--------------6--6--------6--6--------------------------6--6--------6--6--------
--------7--7--------------------7--7--------------7--7--------------------------
--0-----------------------------------0-----0-----------------------------------
--0-----------------------------------0-----0-----------------------------------
--0-----------------------------------0-----0-----------------------------------

                                                                                
--------------------------------------------------------------------------------
--------------------------------------------------------------------------------
------------------------8--8--------------------------------9--9--11-11-13-13---
6--6--------------6--6--------6--6--------------------6--6----------------------
------------7--7--------------------7--7--------7--7----------------------------
------2-----------------------------------4-------------------------------------
------2-----------------------------------4-------------------------------------
------2-----------------------------------4-------------------------------------

                                                             
|-------|----|----|----||---------------------------|-------|
|-------|----|----|----||---------------------------|-------|
|--13---|----|----|----||-------13----------13L-----|--13---|
|-------|----|----|----||o--------------------------|-------|
|-------|----|----|----||o---14----14----12---------|-------|
|-------|----|----|----||-0-----------0-------------|-------|
|-------|----|----|----||---------------------------|-------|
|-------|----|----|----||---------------------------|-------|

                                                          
----------------------------|----------------------------|
----------------------------|----------------------------|
--------13----------13L-----|--13----11-9L-9-------------|
----------------------------|----------------------------|
-----14----14----12---------|----------------------------|
--0-----------0-------------|----------------------------|
----------------------------|----------------------------|
----------------------------|----------------------------|

                                                                     
----------------------------|----------|----------------------------|
----------------------------|----------|----------------------------|
--------13----------13------|--16-13---|--------13----------13L-----|
----------------------------|----------|----------------------------|
-----14----14----12---------|----------|-----14----14----12---------|
--0-----------0-------------|----------|--0-----------0-------------|
----------------------------|----------|----------------------------|
----------------------------|----------|----------------------------|

                                                                
---------------||----------------------------------------------|
---------------||----------------------------------------------|
--13----11s9---||-----------11M------------------11M---11M-----|
--------------o||--------13M---13M------------13M---13M---13M--|
-----11L11s9--o||--11M11M---------11M11M11M11M-----------------|
---------------||--0M----------------0M-0M---------------------|
---------------||----------------------------------------------|
---------------||----------------------------------------------|

                                                     
--------------------------------------0--0-----0----|
--------------------------------------0--0-----0----|
-----------11M------------------11M---13-13----13---|
--------13M---13M------------13M---13M11-11----11---|
--11M11M---------11M11M11M11M---------12-12----12---|
--0M----------------0M-0M-------------0--0-----0----|
----------------------------------------------------|
----------------------------------------------------|

  =  =  =  =  =  =  =  =  =  =  =  =  =  =     
----------------------------------------------|
----------------------------------------------|
-----------------------------9--8--6----------|
--------------7--6--------------------9--6----|
--------7--4--------7--6--7-------------------|
--5--4----------------------------------------|
----------------------------------------------|
----------------------------------------------|

  =  =  =  =  =  =  =  =  =  =  =  =  =  =     
----------------------------------------------|
----------------------------------------------|
-----------------------------9--8--6----------|
--------------7--6--------------------9--6----|
--------7--4--------7--6--7-------------------|
--5--4----------------------------------------|
----------------------------------------------|
----------------------------------------------|

  =  =  =  =  =  =  =  =  =  =  =  =  =  =     
----------------------------------------------|
----------------------------------------------|
-----------------------------9--8--6----------|
--------------7--6--------------------9--6----|
--------7--4--------7--6--7-------------------|
--5--4----------------------------------------|
----------------------------------------------|
----------------------------------------------|

  =  =  =  =  =  =  =  =  =  =  =  =  =  =     
----------------------------------------------|
----------------------------------------------|
-----------------------------9--8--6----------|
--------------7--6--------------------9--6----|
--------7--4--------7--6--7-------------------|
--5--4----------------------------------------|
----------------------------------------------|
----------------------------------------------|

  =  =  =  =  =  =  =  =  =  =  =  =  =  =     
----------------------------------------------|
----------------------------------------------|
-----------------------------9--8--6----------|
--------------7--6--------------------9--6----|
--------7--4--------7--6--7-------------------|
--5--4----------------------------------------|
----------------------------------------------|
----------------------------------------------|

  =  =  =  =  =  =  =  =  =  =  =  =  =  =     
----------------------------------------------|
----------------------------------------------|
-----------------------------9--8--6----------|
--------------7--6--------------------9--6----|
--------7--4--------7--6--7-------------------|
--5--4----------------------------------------|
----------------------------------------------|
----------------------------------------------|

  =  =  =  =  =  =  =  =  =  =  =  =  =  =     
----------------------------------------------|
----------------------------------------------|
-----------------------------9--8--6----------|
--------------7--6--------------------9--6----|
--------7--4--------7--6--7-------------------|
--5--4----------------------------------------|
----------------------------------------------|
----------------------------------------------|

  =  =  =  =  =  =  =  =  =  =  =  =  =  =
----------------------------------------------|
----------------------------------------------|
-----------------------------9--8--11-9--13---|
--------------7--6----------------------------|
--------7--4--------7--6--7-------------------|
--5--4----------------------------------------|
----------------------------------------------|
----------------------------------------------|


--------------------------------------------------------------------------------
--------------------------------------------------------------------------------
--------------------------------------------------------------------------------
--------------------------------------------------------------------------------
--------------------------------------------------------------------------------
--5-----------------------------------5-----5-----------------------------------
--5-----------------------------------5-----5-----------------------------------
--5-----------------------------------5-----5-----------------------------------


--------------------------------------------------------------------------------
--------------------------------------------------------------------------------
--------------------------------------------------------------------------------
--------------------------------------------------------------------------------
--------------------------------------------------------------------------------
------5-----------------------------------5-------------------------------------
------5-----------------------------------5-------------------------------------
------5-----------------------------------5-------------------------------------


|
|
|
|
|
|
|
|


--------------------------------------------------------------------------------
--------------------------------------------------------------------------------
--------------------------------------------------------------------------------
--------------------------------------------------------------------------------
--------------------------------------------------------------------------------
--5-----------------------------------5-----5-----------------------------------
--5-----------------------------------5-----5-----------------------------------
--5-----------------------------------5-----5-----------------------------------


--------------------------------------------------------------------------------
--------------------------------------------------------------------------------
--------------------------------------------------------------------------------
--------------------------------------------------------------------------------
--------------------------------------------------------------------------------
------5-----------------------------------5-------------------------------------
------5-----------------------------------5-----4M----2M----0M------------------
------5-----------------------------------5-----4M----2M----0M------------------


|
|
|
|
|
|
|
|


--------------------------------------------------------------------------------
--------------------------------------------------------------------------------
--------------------8--8--------------------------------------8--8--------8--8--
--------------6--6--------6--6--------------------------6--6--------6--6--------
--------7--7--------------------7--7--------------7--7--------------------------
--0-----------------------------------0-----0-----------------------------------
--0-----------------------------------0-----0-----------------------------------
--0-----------------------------------0-----0-----------------------------------


--------------------------------------------------------------------------------
--------------------------------------------------------------------------------
------------------------8--8--------------------------------------8--8--------8-
6--6--------------6--6--------6--6--------------------------6--6--------6--6----
------------7--7--------------------7--7--------------7--7----------------------
------0-----------------------------------0-----0-------------------------------
------0-----------------------------------0-----0-------------------------------
------0-----------------------------------0-----0-------------------------------


------------|
------------|
-8----------|
----6--6----|
------------|
------------|
------------|
------------|


--------------------------------------------------------------------------------
--------------------------------------------------------------------------------
--------------------8--8--------------------------------------8--8--------8--8--
--------------6--6--------6--6--------------------------6--6--------6--6--------
--------7--7--------------------7--7--------------7--7--------------------------
--0-----------------------------------0-----0-----------------------------------
--0-----------------------------------0-----0-----------------------------------
--0-----------------------------------0-----0-----------------------------------


--------------------------------------------------------------------------------
--------------------------------------------------------------------------------
------------------------8--8----------------------------------------------------
6--6--------------6--6--------6--6----------------------------------------------
------------7--7--------------------7--7----------------------------------------
------0-----------------------------------5M----4M----2M----0M----------------0-
------0-----------------------------------5M----4M----2M----0M----------------0-
------0-----------------------------------5M----4M----2M----0M----------------0-


------------||
------------||
------------||
------------||
------------||
------------||
------------||
------------||
Добавлено: 13.10.2014
Другие материалы по этой песне:

Страница создана 03.09.2014
http://primanota.ru/rob-scallon/progressive-metal-town-usa-chords.htm
Привет, Гость.
Предлагаем пройти революционный курс по гитаре.
Подарок от PrimaNota.Ru, забирай!