PrimaNota.ru - самый крупный в мире бесплатный архив песенных текстов, аккордов, табулатур и нот


Rem - Zither - аккорды и текст, таба, видео

Регистрация Запомнить меня
Войти через:  Facebook Google Twitter Vk Yandex Mail.ru

Rem - Zither - аккорды и текст, таба, видео

Печатать
Просмотров: 144
Zither
Rem
		   # For the latest collection of R.E.M. chords & tab, go to
# http://www.uark.edu/~cbray/rem/
#
# If you have any corrections or additions to this file, please email them
# to cbray@comp.uark.edu
#

ZITHER  (Instrumental)



F#: 244322    E: 022100         B: X24442    A: X02220


verse:

e-2--3--7---5\3----2--3--7--5--3--5                do this two times
b-3--5--8---7\5----3--5--8--7--5--7


chorus:

e--5--3--2----2----||:--2h3-2-0-----2---:||--2h3--2--0------------| (1st ending)
b----------3-----3-||:-----------3----3-:||-------------3---------|
g-----------------------------------------------------------3-----|
d--------------------------------------------------------------3--|

b--2--3 /5--1----------0--3--3--3--3--3---
g----- ----------2----2-----2--2--2--2--2-
d----- -------------3--------0--0--0--0--0


(2nd ending)
b---0-3---3--3--3--3--3--3--3--3--3--3--3-
g------2---2--2--2--2--2--2--2--2--2--2--2-          then go to the bridge
d------0---0--0--0--0--0--0--0--0--0--0--0-


bridge:
F#   B  E  A

ending:     e--2-----3-----7-----5
            b--3-----5-----8-----7


----


e--2--3- /7--5--2--3-----2--3--/7--5------5----
B--3--5--/8--7--3--5-----3--5--/8--7---7--7----
G----------------------------------------------

e--2--3--/7--5--2--0-----2--3--/7--5------5--
B--3--5--/8--7--3--1-----3--5--/8--7---7--7--
G--------------------------------------------


e--5 /3--2--2----2 h 3--2--0--2---2 h 3-2-0 -2---------
B----------3--3-------------3---3-----------3--3-------
G------------------------------------------------------

e--2 h 3--2-0-------------------------------2-2-2-2-2--
B-------------3-----3--4--/6--------------3-3-3-3-3-3--
G---------------3------------5---2------3---2-2-2-2-2--
D-----------------3----------------3--3-----0-0-0-0-0--

Bridge

PM ------|   PM-------|   PM--------|    PM--------|
e--------------------------------------------------------
B---------------------3------------------------2---------
G---------3---------3---3------------1-------2---2-------
D-------4--4------3-------3--------2--2-----2------2-----
A-----4------4--2-----------2 ---2-----2--0--------------
E-0-2--------------------------0-------------------------

2nd time
e-------------------------------------
B--- 2-- 2-- 2-- 2-- 2-- 2-- 2--------
G--- 2-- 2-- 2-- 2-- 2-- 2-- 2--------
D--- 2-- 2-- 2-- 2-- 2-- 2-- 2--------
A--- 0-- 0-- 0-- 0-- 0-- 0-- 0--------
E-------------------------------------


repeat

 outtro

e--2--3--/7---5-------
B--3--5--/8---7-------
G-------------7-------
D---------------------     
Добавлено: 29.06.2013
Другие материалы по этой песне:
  • Аккорды и текст

Страница создана 21.02.2012
http://primanota.ru/rem/zither-chords.htm
Привет, Гость.
Предлагаем пройти революционный курс по гитаре.
Подарок от PrimaNota.Ru, забирай!