PrimaNota.ru - самый крупный в мире бесплатный архив песенных текстов, аккордов, табулатур и нот


Rem - All The Best - таба, видео

Регистрация Запомнить меня
Войти через:  Facebook Google Twitter Vk Yandex Mail.ru

Rem - All The Best - таба, видео

Печатать
Просмотров: 125
------------------------------------------------------------------------
		ALL THE BEST - REM
------------------------------------------------------------------------
Tabbed by: Barnaby Wilde
Email:

Intro/Verse
Guitar 1
e|---------0---0---0---0------------|
B|---------0---0---0---0------------|
G|---------4---7---7---6------------|
D|-2-0-2-4-4---7---5---4---2-0-2-4--|
A|---------0---0---0---0------------|
E|---------0---0---0---0------------|
Guitar 2
e|-777777777777777710-1099999999----|
B|-00000000000000000000000000000----|
G|----------------------------------|
D|----------------------------------|
A|----------------------------------|
E|----------------------------------|

Chorus
e|-0---0--0---0---0--0---0---0--0---0---3---|
B|-0---3---3--0---3---3--0---3---3--2---3---|
G|-1---2-2--2-1---2-2--2-1---2-2--2-2---0---|
D|-2---0-0----2---0-0----2---0-0----2---0---|
A|-2----------2----------2----------0---2---|
E|-0----------0----------0----------0---3---|

Middle Bridge
e|-----------------------|
B|-----------------------|
G|-7-7-5-7-7-9-----------|
D|--7-----7---8-7-10-12--|
A|---------------8-------|
E|-----------------------|

End
Guitar 1
e|-2--|
B|-0--|
G|-4--|
D|-4--|
A|-0--|
E|-0--|
Guitar 2
e|--0---|
B|--0---|
G|-11---|
D|--9---|
A|--0---|
E|--0---|
Добавлено: 29.11.2013
Другие материалы по этой песне:
  • Аккорды и текст

Страница создана 15.09.2013
http://primanota.ru/rem/all-the-best-chords.htm
Привет, Гость.
Предлагаем пройти революционный курс по гитаре.
Подарок от PrimaNota.Ru, забирай!