PrimaNota.ru - самый крупный в мире бесплатный архив песенных текстов, аккордов, табулатур и нот


Rancid - Roots radical tabs - таба, видео

Регистрация Запомнить меня
Войти через:  Facebook Google Twitter Vk Yandex Mail.ru

Rancid - Roots radical tabs - таба, видео

Печатать
Просмотров: 98


band rancid
songroots radical
standerd tuning 
iam only 12 but iam sure it is correct
*=x 8  L= let ring ^strum up
verse
-------------------------------------
---*----------------------------------
---5--*----------------5555---------
---5--3--5555--3333---5555----------
---3--3--5555--3333---3333---------
------1--3333--1111----------------
bridge1
------------------------------------
-------------------------------------
333-L--------------------------------
333-L----333-L----555-L--------------
111-L----333-L----555-L-------------
---------111-L----333-L-------------

chours
-------------------------------------
--------------------------------------
-5555---------------------------------  x3
-5555--33--55------------------------
-3333--33--55-----------------------
-------11--33--------------------------

chours
--------------------------------
-----------------------------------
5555---------------------------------
5555-555555555---------------------
3333-555555555--------------------
-----333333333--------------------
           ^  ^  ^  ^
bridge2  i dont no how many times to play each one just listen 2 the song
-------------------------------------------
--------------------------------------------
--------5----------------------------------
3-------5---------------------------------
3-------3---------------------------------
1-------------------------------------------

Добавлено: 23.08.2013
Другие материалы по этой песне:
  • Аккорды и текст

Страница создана 23.08.2013
http://primanota.ru/rancid/roots-radical-tabs-chords.htm
Привет, Гость.
Предлагаем пройти революционный курс по гитаре.
Подарок от PrimaNota.Ru, забирай!