PrimaNota.ru - самый крупный в мире бесплатный архив песенных текстов, аккордов, табулатур и нот


Rancid - Honor Is All We Know - аккорды и текст, таба, видео

Регистрация Запомнить меня
Войти через:  Facebook Google Twitter Vk Yandex Mail.ru

Rancid - Honor Is All We Know - аккорды и текст, таба, видео

Печатать
Просмотров: 74
Уроки эстрадного вокала в Санкт-Петербурге
Авторы: Tim Timebomb

Honor Is All We Know
Rancid
Tabbed By: Fabio BlenderBR


 Enjoy!


- Intro:

e|-------------4-------------4-------------4-5-5-5-5-5-4---------4---------4---------4---------4---------|
B|-5-5-5-5-5-7---5-5-5-5-5-7---5-5-5-5-5-7---------------7-7-7-7---5-5-5-5---7-7-7-7---5-5-5-5---7-7-7-7-|
G|-------------------------------------------------------------------------------------------------------|
D|-------------------------------------------------------------------------------------------------------|
A|-------------------------------------------------------------------------------------------------------|
E|-------------------------------------------------------------------------------------------------------|

e|----------------------------------|
B|-5---5---4---4---2---2---2h5------|
G|---4---4---4---4---4---4----------|
D|----------------------------------|
A|----------------------------------|
E|----------------------------------|



 - Verse:

E                                        A       E
Don't change a goddamn thing, hold your head up high
                                         A         B
When the hard times come, we have the strength to defy
A             B               C#m             B
Believe in yourself, let the arrow leave the bow
E          G#        A               E
Honor is among us, honor is all we know



 - Intro:

E         A  E
          A  B
A   B   C#m  B
E   G#m   A  E



 - Verse 2:

E                              A     E
The night has come and we no longer see
                                    A      B
Better days around the corner, for you and me
A              B      C#m           B
Receive the horizon dawn's golden glow
E          G#        A              E
Honor is among us, honor is all we know



 - Intro:

E         A  E
          A  B
A   B   C#m  B
E   G#m   A  E



 - Verse 3:

E                               A     E
It takes courage to make it in this land
                               A    B
So don't forget, but forgive every man
A                  B             C#m     B                             
And prosperity's river it will forever flow
E          G#        A              E
Honor is among us, honor is all we know



 - Intro:

E         A  E
          A  B
A   B   C#m  B
E   G#m   A  E

__________
Hope you liked!

Tabbed by: Fabio BlenderBR
Добавлено: 11.09.2015
Другие материалы по этой песне:
  • Аккорды и текст

Страница создана 11.09.2015
http://primanota.ru/rancid/honor-is-all-we-know-chords.htm
Привет, Гость.
Предлагаем пройти революционный курс по гитаре.
Подарок от PrimaNota.Ru, забирай!