PrimaNota.ru - самый крупный в мире бесплатный архив песенных текстов, аккордов, табулатур и нот


Ramones - Blitzkreg bop - таба, видео

Регистрация Запомнить меня
Войти через:  Facebook Google Twitter Vk Yandex Mail.ru

Ramones - Blitzkreg bop - таба, видео

Печатать
Просмотров: 181


Blitzkreg Bop
By The Ramones 
This is the very popular song done by the first punk group to get 
signed but who cares they were a very good group and this is my 
first tab so sorry it is so sloppy RIP Joey

1/--------------------------/
2/-------------------------/
3/---------77-99----------/
4/---------55-77---------/
5/-7777777--------------/
6/-5555555-------------/  X's 3

1/-----------------
2/-----------------
3/-----------------
4/-----77----------
5/--77-55-77-------
6/--55----55-------

Tabed By Chip

Добавлено: 31.08.2013
Вам также может быть интересно:
Другие материалы по этой песне:
  • Аккорды и текст

Страница создана 31.08.2013
http://primanota.ru/ramones/blitzkreg-bop-chords.htm
Привет, Гость.
Предлагаем пройти революционный курс по гитаре.
Подарок от PrimaNota.Ru, забирай!