PrimaNota.ru - самый крупный в мире бесплатный архив песенных текстов, аккордов, табулатур и нот


Ramones - Rocket To Russia (ver 2) (album) - бас-таба, видео

Регистрация Запомнить меня
Войти через:  Facebook Google Twitter Vk Yandex Mail.ru

Ramones - Rocket To Russia (ver 2) (album) - бас-таба, видео

Печатать
Просмотров: 37
Уроки эстрадного вокала в Санкт-Петербурге
Artist: Ramones
Album: Rocket To Russia
Genre: Punk Rock
Year: 1977

Hey guys! This is the bass tab of the album. There's already an other version of 
Rocket to Russia on UG, but a lot of the songs are wrong. This is 100% correct.
Anyway, enjoy the Ramones!


01 Cretin Hop

Intro/Bridge:

G:------------------------
D:------7-----------------
A:---77---77777777-5--5---
E:------------------------

Verse:

G:---------------------------------------
D:---------------------------------------
A:--------------------7777777777777777---
E:---5555555555555555--------------------

Chorus:

G:-----------------------
D:-----------------------
A:------------77777777---
E:---77777777------------

End:

G:-------
D:-------
A:---7---
E:-------

The order is:
.Intro x2
.Verse x2
.Chorus x2
.Verse x2
.Chorus x2
.Bridge x2
.---------
.Bridge x1
.---------
.Bridge x2
.Verse x2
.Chorus x2
.Verse x2
.Chorus x2
.Bridge x2
.---------
.Bridge x1
.---------
.Bridge x4
.End x1

----------------------------------------------------------------------------------------------------------------

02 Rockaway Beach

Intro:

G:--------------------
D:--------------------
A:---4-555555555555---
E:--------------------

Verse:

G:---------------------------------------------------------------------------
D:---6-777777-6-777777-6-777777-6-777777-------------------------------------
A:---------------------------------------5-55555555555555-7-77777777777777---
E:---------------------------------------------------------------------------

Chorus:

G:-------------------------------------------------------------------------
D:-------------------------------------------------------------------------
A:--------------------5-55555555555555------------------7-77777777777777---
E:---5-55555555555555------------------5-55555555555555--------------------

Bridge 1:

G:-----------------------------
D:---5-----------3-------------
A:------5-555555----3-333333---
E:-----------------------------x2

G:--------------------------------------------------------------------------
D:--------------------------------------------------------------------------
A:------------------------------------------------------5-555555-7-777777---
E:---2-22222222222222-5-5555555555555555-2-222222222222---------------------x1

Bridge 2:

G:-----------------------------   ----------
D:---5-----------3-------------   ---5------
A:------5-555555----3-333333---   ------5---
E:-----------------------------x2 ----------x1

End:

G:----------
D:---5------
A:------5---
E:----------

The order is:
.Intro x2
.Verse x2
.Chorus x2
.Bridge 1 x1
.Verse x2
.Chorus x1
.Bridge 2 x1
.Chorus x2
.End x1

----------------------------------------------------------------------------------------------------------------

03 Here Today, Gone Tomorrow

Intro/Chorus:

G:---------------------------------------
D:---------------------------------------
A:---5555555555555555--------------------
E:--------------------2222222222222222---x1

G:---------------------------------------------------------
D:---------------------------------------------------------
A:---5555555555555555-------------------5555555555555555---
E:--------------------22222222-00000000--------------------x1

Verse:

G:------------------------  
D:------------------------  
A:---5-5------------------  
E:--------0-0--22222222---

Post-Verse:

G:----------------
D:----------------
A:---7--------5---
E:----------------

Bridge:

G:---------------------------------------
D:--------------------4444444444444444---
A:---5555555555555555--------------------
E:---------------------------------------x1

G:---------------------------------------------------------
D:--------------------44444444-22222222-0000000000000000---
A:---5555555555555555--------------------------------------
E:---------------------------------------------------------x1

End:

G:------------------------   ----------------
D:------------------------   ----------------
A:---5-55-7-77-9-999999---   ---7--------5---
E:------------------------x2 ----------------x1

The order is:
.Intro x2
.Verse x3
.Post-Verse x1
.Chorus x2
.Verse x3
.Post-Verse x1
.Bridge x1
.Verse x3
.End x1

----------------------------------------------------------------------------------------------------------------

04 Locket Love

Intro/Bridge 1/End:

G:-------------------------
D:-------------------------
A:---7777------5555-7777---
E:--------5555-------------

Verse:

G:---------------------------------------
D:---------------------------------------
A:---5-55555555555555-7-77777777777777---
E:---------------------------------------

Chorus:

G:---------------------------------------
D:---------------------------------------
A:--------------------5-55555555555555---
E:---5-55555555555555--------------------

Bridge 2:

G:-------------------------------------------------------------------------
D:-------------------------------------------------------------------------
A:---5-55555555555555-----------------------------------7-77777777777777---
E:--------------------5-55555555555555-7-77777777777777--------------------

The order is:
.Intro x2
.Verse x2
.Chorus x2
.Bridge 1 x2
.Verse x2
.Chorus x2
.Bridge 1 x2
.Bridge 2 x1
.Bridge 1 x2
.Verse x2
.Chorus x2
.Bridge 1 x2
.Bridge 2 x1
.Bridge 1 x2
.Verse x2
.Chorus x2
.End x4

----------------------------------------------------------------------------------------------------------------

05 I Don't Care

Intro/Post-Verse:

G:-----------------------------
D:---77-5-7--5-7-5-3333-5555---
A:-----------------------------
E:-----------------------------

Verse: 

G:------------------------
D:---77777777-3333-5555---
A:------------------------
E:------------------------

Bridge:

G:--------------------------------------------------------
D:---7777777777777777-5555555555555555-3333333333333333---
A:--------------------------------------------------------
E:--------------------------------------------------------

End:

G:-------------------
D:---77-5-7--5-7-5---
A:-------------------
E:-------------------

The order is:
.Intro x2
.Verse x5
.Post-Verse x2
.Verse x5
.Post-Verse x2
.Bridge x1
.Post-Verse x2
.Verse x5
.Post-Verse x1
.End x1

----------------------------------------------------------------------------------------------------------------

06 Sheena Is A Punk Rocker

Intro/Pre-Verse:

G:--------------
D:--------------
A:---2-33-333---
E:--------------

Verse:

G:------------------------------------------------------------------------
D:------------------------------------5555555555555555--------------------
A:---33333333333333333333333333333333------------------3333333333333333---
E:------------------------------------------------------------------------x1

G:-----------------------
D:------------33333333---
A:-----------------------
E:---55555555------------x2

G:-------------------------------------------------------
D:--------------------55555555555555555555555555555555---
A:---3333333333333333------------------------------------
E:-------------------------------------------------------x1

Chorus:

G:------------------------   
D:------------3333-5555---   
A:---3-333333-------------   
E:------------------------

Post-Chorus:

G:----------------------
D:----------------------
A:---3333333333333333---
E:----------------------x1

G:-------------------------------------------------------------------------
D:---3-33333333333333------------------5-55555555555555--------------------
A:--------------------3-33333333333333------------------1-11111111111111---
E:-------------------------------------------------------------------------x1

The order is:
.Intro x4
.Verse x1
.Chorus x8
.Post-Chorus x1
.Pre-Verse x4
.Verse x1
.Chorus x8
.Post-Chorus x1
.Pre-Verse x4
.Chorus x Play 'til the end

----------------------------------------------------------------------------------------------------------------

07 We're A Happy Family

Riff 1:

G:--------------------   ----------------------------------
D:--------------------   ------------7--9-----------5--7---
A:------7-------------   ---99999999-------77777777--------
E:---5----777777777---x4 ----------------------------------x2

Riff 2:

G:--------------------------------------------
D:--------5555------7777------5555------------
A:---7777------7777------7777------55555555---
E:-------------------------------------------- 

The order is:
.Riff 1 x1
.Riff 2 x4
.Riff 1 x1
.Riff 2 x4
.Riff 1 x1
.Riff 2 x Play 'til the end

----------------------------------------------------------------------------------------------------------------

08 Teenage Lobotomy

Intro/Bridge:

G:--------------------   ---------------   --------------------
D:--------------------   ---------------   --------------------
A:---7--9-------------   ---7777-5--0---   ---------55555555---
E:---------77777777---x2 ---------------x4 ---5--3-------------x2

Verse:

G:---------------------------------------
D:---------------------------------------
A:--------------------7777777777777777---
E:---5555555555555555--------------------

End:

G:--------------------   ---------------  ---------------------
D:--------------------   ---------------   --------------------
A:---7--9-------------   ---7777-5--0---   ---------55555555---
E:---------77777777---x2 ---------------x4 ---5--3-------------x1

G:-------------
D:-------------
A:---------5---
E:---5--3------x1


The order is:
.Intro x1
.Verse x3
.Bridge x1
.Verse x3
.Bridge x1
.---------
.Bridge x1
.Verse x3
.End x1

----------------------------------------------------------------------------------------------------------------

09 Do You Wanna Dance?

Riff 1:

G:-----------------------   ----------------------------------------
D:---7-777777------------   ---7-777777----------7777777777777777---
A:------------5-555555---   ------------7-777777--------------------
E:-----------------------x2 ----------------------------------------x1

Riff 2:

G:--------------------------------------
D:--------------------------------------
A:---77777777777777777777777777777777---
E:--------------------------------------

Riff 3:

G:----------------------------------------
D:------------------------------------7---
A:---77777777777777777777777777777777-----
E:----------------------------------------


The order is:
.Riff 1 x3
.Riff 2 x1
.Riff 1 x3
.Riff 2 x1
.Riff 1 x3
.Riff 3 x1

----------------------------------------------------------------------------------------------------------------

10 I Wanna Be Well

Intro:

G:----------------------
D:----------------------
A:----------------------
E:---5555555555555555---

Verse:

G:------------------------   ----------------------
D:------------------------   ----------------------
A:---5-555555-------------   ---0000000000000000---
E:------------3-33-5555---x3 ----------------------x1

Chorus:

G:----------------------------------------
D:----------------------------------------
A:---------------------5-5555555-555555---
E:---3-333333-5-555555--------------------x3

G:----------------------------------------
D:----------------------------------------
A:---------------------3-3333333-333333---
E:---3-333333-5-555555--------------------x1

End:

G:------------------------   -------
D:------------------------   -------
A:---5-555555-------------   ---5---
E:------------3-33-5555---x5 -------x1

The order is:
.Intro x1
.Verse x2
.Chorus x1
.Verse x2
.Chorus x1
.End x1

----------------------------------------------------------------------------------------------------------------

11 I Can't Give You Anything

Riff 1:

G:--------------------------
D:--------3333--------------
A:---3-3-------3-3----------
E:------------------3-333---

Riff 2:

G:---------------------------------------   ------------------------
D:---------------------------------------   ------------------------
A:---------------------------------------   ------------333---------
E:---3333333333333333-1111111111111111---x1 ---3-333333-----3-333---x3

Riff 3:

G:------------------------
D:---3-3------------------
A:--------3-3-------------
E:-------------3-333333---

Riff 4:

G:-------------------------
D:-------------333---------
A:--------3-33-----3-333---
E:---3-3-------------------



The order is:
.Riff 1 x2
.Riff 2 x1
.Riff 1 x2
.Riff 2 x1
.Riff 1 x2
.Riff 3 x4
.Riff 4 x3
.Riff 1 x2
.Riff 2 x1
.Riff 1 x2
.Riff 3 x4
.Riff 4 x Play 'til the end

----------------------------------------------------------------------------------------------------------------

12 Ramona

Intro/End:

G:---------------------
D:----------3----------
A:---3-3333---3-3333---
E:---------------------

Verse:

G:----------------------------------------
D:--------------------3-333333-55555555---
A:---3333333333333333---------------------
E:----------------------------------------

Pre-Chorus:

G:----------------------------------------------
D:---2-333-2-333-2-333-2-333--------------------
A:---------------------------3333333333333333---
E:----------------------------------------------x1

G:----------------------------------------------
D:---2-333-2-333-2-333-2-333-5555555555555555---
A:----------------------------------------------
E:----------------------------------------------x1

Chorus:

G:---------------------------------------
D:---------------------------------------
A:---1111111111111111--------------------
E:--------------------1111111111111111---x3

G:---------------------------------------
D:---------------------------------------
A:---1111111111111111-3333333333333333---
E:---------------------------------------x1

The order is:
.Intro x2
.Verse x2
.Pre-Chorus x1
.Verse x2
.Pre-Chorus x1
.Chorus x1
.Pre-Verse x2
.Verse x2
.Pre-Chorus x1
.Chorus x1
.End x1

----------------------------------------------------------------------------------------------------------------

13 Surfin' Bird

Riff 1:

G:--------------------------
D:---7-Play 'til you need---
A:--------------------------
E:--------------------------

Riff 2:

G:---------------------------------------
D:---------------------------------------
A:---7777777777777777-5555555555555555---
E:---------------------------------------

The order is:
.Riff 1 
.Riff 2 x1
.Riff 1
.Riff 2 x1
.Riff 1
.---------
.Riff 1
.Riff 2 x1
.Riff 1 
.---------
.Riff 1
.Riff 2 x1
.Riff 1

----------------------------------------------------------------------------------------------------------------

14 Why Is It Always This Way?

Verse/End:

G:------------------------
D:-------------4-444444---
A:---2-22-4-44------------
E:------------------------

Chorus:

G:-------------------------------------------------------------------------
D:---2-22222222222222-4-4444444444-----2-22222222222222--------------------
A:---------------------------------2-0------------------4-44444444444444---
E:-------------------------------------------------------------------------

Bridge:

G:-----------------------------------------   -----------------------
D:-----------------------------------------   -----------------------
A:---2222222222222222----------------------   ---22222222-44444444---
E:--------------------4-55-4-55-4-55-455---x2 -----------------------x1

The order is:
.Verse x10
.Chorus x1
.Bridge x1
.Verse x8
.Chorus x1
.Bridge x1
.End x Play 'til the end






Tab by: mdc_ivan








Добавлено: 07.02.2016
Другие материалы по этой песне:
  • Аккорды и текст

Страница создана 07.02.2016
http://primanota.ru/ramones/rocket-to-russia-ver-2-album-chords.htm
Привет, Гость.
Предлагаем пройти революционный курс по гитаре.
Подарок от PrimaNota.Ru, забирай!