PrimaNota.ru - самый крупный в мире бесплатный архив песенных текстов, аккордов, табулатур и нот


Rammstein - Te Quiero Puta - текст песни, таба, бас-таба, видео

Регистрация Запомнить меня
Войти через:  Facebook Google Twitter Vk Yandex Mail.ru

Rammstein - Te Quiero Puta - текст песни, таба, бас-таба, видео

Печатать
Просмотров: 1094
-------------------------------------------------------------------------------
                             SONG NAME Te quiero puta
-------------------------------------------------------------------------------
Tabbed by: Carlos Yanko
Email:yankork@hotmail.com

Es una excelente rola del mejor grupo alemán que pueda existir.
Si quieren formar un grupo que toque covers escríbanme  
intro

e|----------------------------------------------------------------------|
B|----------------------------------------------------------------------|
G|--5-------------------------------------------------------------------|
D|--6-------------------------------------------------------------------|
A|--6------0---4-----x--4p3—--4---x--4---x---4p3—--4p3------------------|
E|--4------0---4-----x--4p3---4---x--4---x---4p3---4p3------------------|

Esto se toca casi toda la canción
e|----------------------------------------------------------------------|
B|----------------------------------------------------------------------|
G|----------------------------------------------------------------------|
D|----------------------------------------------------------------------|
A|---4-----x--4p3—4---x--4---x---4p3—4p3--------------------------------|
E|---4-----x--4p3-4---x--4---x---4p3-4p3--------------------------------|

Y después solo cambia un acorde al ultimo

e|----------------------------------------------------------------------|
B|----------------------------------------------------------------------|
G|----------------------------------------------------------------------|
D|----------------------------------------------------------------------|
A|------------4-----x--4p3--—4---x--4---x---4p3—--4p3------3------------|
E|------------4-----x--4p3---4---x--4---x---4p3---4p3------1------------|


Después solo “Palm mute”  durante “mas, mas mas por favor” 
e|----------------------------------------------------------------------|
B|----------------------------------------------------------------------|
G|----------------------------------------------------------------------|
D|----------------------------------------------------------------------|
A|--------x--x--x----x--------x--x--x-----x-----------------------------|
E|--------x--x--x----x--------x--x--x-----x-----------------------------|

Y al ultimo  se toca asi varias veces y termina con el ultimo acorde
e|----------------------------------------------------------------------|
B|----------------------------------------------------------------------|
G|----------------------------------------------------------------------|
D|----------------------------------------------------------------------|
A|----x--8--8--x---8--8--x--8--8------------3---------------------------|
E|----x--8--8--x---8--8--x--8--8------------1---------------------------|

VIVA MEXICOOOOOOOOO
Добавлено: 15.05.2012
Другие материалы по этой песне:

Страница создана 23.03.2012
http://primanota.ru/rammstein/te-quiero-puta-chords.htm
Привет, Гость.
Предлагаем пройти революционный курс по гитаре.
Подарок от PrimaNota.Ru, забирай!