PrimaNota.ru - самый крупный в мире бесплатный архив песенных текстов, аккордов, табулатур и нот


Rammstein - Tier - аккорды и текст, таба, бас-таба, драм-таба, видео

Регистрация Запомнить меня
Войти через:  Facebook Google Twitter Vk Yandex Mail.ru

Rammstein - Tier - аккорды и текст, таба, бас-таба, драм-таба, видео

Печатать
Просмотров: 1675
Tier
Rammstein
RAMMSTEIN - TIER
Tabbed by: Mattias Jaselius

Standard Tuning

ACOUSTIC INTRO: (hit each chord a several times exept the very last)

E|---------------------------------|
B|---------------------------------|
G|--4-/-7-/-9---2-4-/-7-/-9-------|
D|--5-/-8-/-10--3-5-/-8-/-10------|
A|--5-/-8-/-10--3-5-/-8-/-10------|
E|--3-/-6-/-8---1-3-/-6-/-8-------|

MAIN RIFF: Distortion

E|--------------------------------------------------|
B|--------------------------------------------------|
G|--------------------------------------------------|
D|--5/7---5/7---8-7-5/7---5/7---5/7---8-10-87------|
A|--3/5xx-3/5xx-6-5-3/5xx-3/5xx-3/5xx-6-8--65xx----|
E|--------------------------------------------------|

CHORUS: Distortion x2

E|---------------------------------|
B|---------------------------------|
G|---------------------------------|
D|--5-5----8-8----10-10----3-3-----|
A|--5-5xx--8-8xx--10-10xx--3-3xx---|
E|--3-3xx--6-6xx--8--8-xx--1-1xx---|
 (Tier...)

BRIDGE: x4

E|-------------------|
B|-------------------|
G|-------------------|
D|--5/7-5/7----------|
A|--5/7-5/7-xxxx-----|
E|--3/5-3/5-xxxx-----|

Song structure:

INTRO
MAIN RIFF
CHORUS
MAIN RIFF
BRIDGE
MAIN RIFF
CHORUS
MAIN RIFF
INTRO
Добавлено: 17.07.2012
Другие материалы по этой песне:

Страница создана 27.02.2012
http://primanota.ru/rammstein/tier-chords.htm
Привет, Гость.
Предлагаем пройти революционный курс по гитаре.
Подарок от PrimaNota.Ru, забирай!