PrimaNota.ru - самый крупный в мире бесплатный архив песенных текстов, аккордов, табулатур и нот


Rammstein - Spring - текст песни, таба, бас-таба, видео

Регистрация Запомнить меня
Войти через:  Facebook Google Twitter Vk Yandex Mail.ru

Rammstein - Spring - текст песни, таба, бас-таба, видео

Печатать
Просмотров: 1146
-------------------------------------------------------------------------
                         Spring - Rammstein
-------------------------------------------------------------------------
Tabbed by: Bee-Ay
Email: Leviathan_ben@hotmail.com

Tuning: C-G-C-F-A-D

Intro riff and start:
D|-------------------------------------------------------------------|
A|-------------------------------------------------------------------|
F|*-----------------------------------------------------------------*|
C|*-0-------0-----0-0-------1-----0-0-------0-----0-0-------1-----0-*|
G|--0-0-0-0-0-0-0-0-0-0-0-0-1-0-0-0-0-0-0-0-0-0-0-0-0-0-0-0-1-0-0-0--|
C|--0-0-0-0-0-0-0-0-0-0-0-0-1-0-0-0-0-0-0-0-0-0-0-0-0-0-0-0-1-0-0-0--|
      | | |   | |     | | |   | |     | | |   | |     | | |   | |
      | | |   | |     | | |   | |     | | |   | |     | | |   | |
                  P  a  l  m    M  u t e   T h e s e


And then:
Guitar 1:
D|---------------------------------------------------------------|
A|---------------------------------------------------------------|
F|5-5-5-5-5-5-5-5-5-4-4-4-4-4-4-4--------------------------------|
C|x-x-x-x-x-x-x-x-x-x-x-x-x-x-x-x-0-------0-----0-0-------1-----0|
G|3-3-3-3-3-3-3-3-3-2-2-2-2-2-2-2-0-0-0-0-0-0-0-0-0-0-0-0-1-0-0-0|
C|--------------------------------0-0-0-0-0-0-0-0-0-0-0-0-1-0-0-0|
                                    | | |   | |     | | |   | |
                                    | | |   | |     | | |   | |
                                             M  u  t  e


Guitar 2:
D|---------------------------------------------------------------|
A|---------------------------------------------------------------|
F|5-5-5-5-5-5-5-5-5-7-7-7-7-7-7-7--------------------------------|
C|x-x-x-x-x-x-x-x-x-x-x-x-x-x-x-x-0-------0-----0-0-------1-----0|
G|3-3-3-3-3-3-3-3-3-5-5-5-5-5-5-5-0-0-0-0-0-0-0-0-0-0-0-0-1-0-0-0|
C|--------------------------------0-0-0-0-0-0-0-0-0-0-0-0-1-0-0-0|
                                    | | |   | |     | | |   | |
                                    | | |   | |     | | |   | |
                                             M  u  t  e

Verse: Clean guitar.
D|----------------|----0-----------|
A|--1-----3-------|------1-3-------|
F|2-----2---------|--2-------------|
C|----------------|0---------------|
G|----------------|----------------|
C|----------------|----------------|

D|----------------|----0-----------|
A|----1---3-------|------1-3-------|
F|--2-----2-------|--2-------------|
C|0-----0---------|0---------------|
G|----------------|----------------|
C|----------------|----------------|


Chorus:
D|------------------------------------------------------------------|
A|------------------------------------------------------------------|
F|*-----------------------------------------------------------------|
C|*-0-------0-----0-0-------1-----0-0-------0-----0-0-------1-----0-|
G|--0-0-0-0-0-0-0-0-0-0-0-0-1-0-0-0-0-0-0-0-0-0-0-0-0-0-0-0-1-0-0-0-|
C|--0-0-0-0-0-0-0-0-0-0-0-0-1-0-0-0-0-0-0-0-0-0-0-0-0-0-0-0-1-0-0-0-|
      | | |   | |     | | |   | |     | | |   | |     | | |   | |
      | | |   | |     | | |   | |     | | |   | |     | | |   | |
                  P  a  l  m    M  u t e   T h e s e


And then:
D|------------------------------------------------|
A|------------------------------------------------|
F|------------------------------------------------|
C|10-10-10-10-10-10-10-10-10-10-10-10-10-10-10-10-|
G|10-10-10-10-10-10-10-10-10-10-10-10-10-10-10-10-|
C|10-10-10-10-10-10-10-10-10-10-10-10-10-10-10-10-|

D|---------------------------------|
A|---------------------------------|
F|--------------------------------*|
C|0-------0-----0-0-------1-----0-*|x2
G|0-0-0-0-0-0-0-0-0-0-0-0-1-0-0-0--|
C|0-0-0-0-0-0-0-0-0-0-0-0-1-0-0-0--|
    | | |   | |     | | |   | |
    | | |   | |     | | |   | |
            M  u  t  e

Bridge:
D|-----------------------------------------------------------------|
A|-----------------------------------------------------------------|
F|-----------------------------------------------------------------|
C|8-8-8-8-8-8-8-8-7-7-7-7-7-7-7-7-5-5-5-5-5-5-5-5-7-7-7-7-7-7-7-7--|
G|8-8-8-8-8-8-8-8-7-7-7-7-7-7-7-7-5-5-5-5-5-5-5-5-7-7-7-7-7-7-7-7--|
C|8-8-8-8-8-8-8-8-7-7-7-7-7-7-7-7-5-5-5-5-5-5-5-5-7-7-7-7-7-7-7-7--|


D|-----------------------------------------------------------------|
A|-----------------------------------------------------------------|
F|-----------------------------------------------------------------|
C|10-10-10-10-10-10-10-10-10-10-10-10-10-10-10-10-(0)--------------|
G|10-10-10-10-10-10-10-10-10-10-10-10-10-10-10-10-(0)--------------|
C|10-10-10-10-10-10-10-10-10-10-10-10-10-10-10-10-(0)--------------|

Let (0) ring and bit then stop the note.

Solo: Verse distorted guitar.
Rythm: Chorus.

Thats it?


If commets or anything else, Mail me.
Добавлено: 09.05.2012
Другие материалы по этой песне:

Страница создана 25.02.2012
http://primanota.ru/rammstein/spring-chords.htm
Привет, Гость.
Предлагаем пройти революционный курс по гитаре.
Подарок от PrimaNota.Ru, забирай!