PrimaNota.ru - самый крупный в мире бесплатный архив песенных текстов, аккордов, табулатур и нот


Rage Against The Machine - Clear The Lane - текст песни, таба, бас-таба, видео

Регистрация Запомнить меня
Войти через:  Facebook Google Twitter Vk Yandex Mail.ru

Rage Against The Machine - Clear The Lane - текст песни, таба, бас-таба, видео

Печатать
Просмотров: 219
Song: Clear the Lane
Band: Rage Against the Machine
Album: Live & Rare

Tabbed by: T.C.
Email: bmrsnr14@gmail.com

Tuning: Standard

Key:
v = press down on Whammy Pedal
_ = Hold note 
^ = Pull up on whammy pedal
/ = Slide
h = Hammer-on
p = Pull-off
\ = Slide off

Okay, I'll provide two versions of the song, one with the Whammy pedal, and
one without. But on the solo, the notes go too high to be able to tab out, so
you're on your own on that part, if you don't own a Whammy. It sounds a lot
better with the Whammy, though.

Intro/verse w/ Whammy boosted one octave higher: 
e|---------------------------------------------------------------------------|
B|-0___----------------------------------------------------------------------|
G|-v---^---------------------------------------------------------------------|
D|---------------------------------------------------------------------------|
A|---------------------------------------------------------------------------|
E|---------------------------------------------------------------------------|
Press down fully on the pedal, then lift up after a couple beats

Intro/verse w/o Whammy:
e|---------------------------------------------------------------------------|
B|-/17---17p0----------------------------------------------------------------|
G|---------------------------------------------------------------------------|
D|---------------------------------------------------------------------------|
A|---------------------------------------------------------------------------|
E|---------------------------------------------------------------------------|


Chorus                           
e|-----------------------------|----------------------------------------------|
B|-----------------------------|----------------------------------------------|
G|---------7-------------------|----------------------------------------------|
D|---------7-------------------|----------------------------------------------|
A|-----------------------------|---5--7--7--7--5--8--8--8---------------------|
E|---7--7-------5--5---7--5--5-|----------------------------------------------|
Repeat this twice^^             Then 


Repeat verse and chorus once

Solo w/ Whammy:

Typical Tom Morello, can't resist the Whammy. :P

I'm 100% on this, until the end of it, because it's hard to tab out the really
high notes when Tom's playing this fast.
e|---------------------------------------------------------------------------|
B|---------------------------------------------------------------------------|
G|-----------------10h13p13--10h9p10--8h9p8--7h8p7-6h7p6--5h6p5--2/4--4fb--0-|
D|------------9h12-----------------------------------------------------------|
A|-------8h11----------------------------------------------------------------|
E|--7h10---------------------------------------------------------------------|

e|---------------------------------------------------------------------------|
B|---------------------------------------------------------------------------|
G|------------------------------------------------------7--------------------|
D|--------7-------7-------7-------7-------7-------7h8h9---------7-------7----|
A|--7h8h9---7h8h9---7h8h9---7h8h9---7h8h9---7h8h9---------7h8h9---7h8h9------|
E|---------------------------------------------------------------------------|

e|---------------------------7h9h10p9p7--------7h9h10p9p7--------------------|
B|--------------------7h9h10------------10p9p7------------10p9p7-------------|
G|--------------7h8h9--------------------------------------------------------|
D|--------7h8h9--------------------------------------------------------------|
A|--7h8h9--------------------------------------------------------------------|
E|---------------------------------------------------------------------------|

This is the part I am not 100% on.          
e|-----------10h12h14h17p14p12p10--------------------------------------------|
B|--10h12h13----------------------13p12p10h12--------------------------------|
G|---------------------------------------------------------------------------|
D|---------------------------------------------------------------------------|
A|---------------------------------------------------------------------------|
E|---------------------------------------------------------------------------|
 Repeat 3 times^^^

The last part, I have no idea, I think it sounds good if you do a bunch of pull
offs up the neck. But you're just going to have to improvise. Sorry, I tried my best.

Bridge w/ Whammy:
e|--0--0--0--0--0------------------------------------------------------------|
B|--v--v--v--v--^------------------------------------------------------------|
G|---------------------------------------------------------------------------|
D|---------------------------------------------------------------------------|
A|---------------------------------------------------------------------------|
E|---------------------------------------------------------------------------|

Bridge w/o Whammy:
e|--/17--/17--/17--/17--17\--------------------------------------------------|
B|---------------------------------------------------------------------------|
G|---------------------------------------------------------------------------|
D|---------------------------------------------------------------------------|
A|---------------------------------------------------------------------------|
E|---------------------------------------------------------------------------|

Third Chorus:
e|---------------------------------------------------------------------------|
B|---------------------------------------------------------------------------|
G|--7-7-7-7------------------------------------------------------------------|
D|--7-7-7-7------------------------------------------------------------------|
A|--x-x-x-x------------------------------------------------------------------|
E|--7-7-7-7------------------------------------------------------------------|

Then another verse, followed by another chorus.

Last bit:
e|--/14----------------------------------------------------------------------|
B|--/14----------------------------------------------------------------------|
G|--/14----------------------------------------------------------------------|
D|--/14----------------------------------------------------------------------|
A|---------------------------------------------------------------------------|
E|---------------------------------------------------------------------------|

Hope you enjoy it.
Добавлено: 28.07.2012
Другие материалы по этой песне:

Страница создана 22.02.2012
http://primanota.ru/rage-against-the-machine/clear-the-lane-chords.htm
Привет, Гость.
Предлагаем пройти революционный курс по гитаре.
Подарок от PrimaNota.Ru, забирай!