PrimaNota.ru - самый крупный в мире бесплатный архив песенных текстов, аккордов, табулатур и нот


Rage Against The Machine - Killing In The Name - аккорды и текст, таба, бас-таба, драм-таба, видео

Регистрация Запомнить меня
Войти через:  Facebook Google Twitter Vk Yandex Mail.ru

Rage Against The Machine - Killing In The Name - аккорды и текст, таба, бас-таба, драм-таба, видео

Печатать
Просмотров: 1512
Уроки эстрадного вокала в Санкт-Петербурге
Авторы музыки: Rage Against the Machine
Авторы текста: Zack de la Rocha
Killing In The Name
Rage Against The Machine
(this is all right out of the official rage book so it's all correct =) )
Rage Against the Machine- killing in the name of:
drop D tuning- DADGBE
key:
X= string depression
.= stoccato
1B?=whole tone bend + note to bend
1/2B?=half tone bend + note to bend
H?=hammer on + indicated note
H_?= hammer off + indicated note
\=slide down
/?= slide up + indicated note
opening:
?
E--0--
B--0-- x4
G--0--
D--2--
A--3--
D-- --
repeat the following twice
E-- -- - - -- -- -- -- -- -- -- --
B-- -- -- -- -- -- -- -- -- -- --
G-- -- -- -- -- -- -- 11-- 12-- -- x3
D-- -- -- --11--12-- -- -- -- --
A-- -- -- -- -- -- -- -- -- -- --
D--0--0--0.-- -- -- -- -- -- --
?
E-- -- -- -- -- -- -- --
B-- -- -- -- -- -- -- --
G-- -- -- -- -- -- --1B 12
D-- -- -- --11--12 -- --
A-- -- -- -- -- -- -- --
D--0--0--0-- -- -- -- --
?
E-- -- -- -- -- -- --
B-- -- -- -- -- -- --
G-- -- -- -- -- -- -- x3
D-- -- -- -- -- -- --
A-- -- -- --6--6--6
D--0--0--0-- -- --
?
E-- -- -- --
B-- -- -- --
G-- -- -- --8
D-- -- -- --X
A-- -- -- --6
D--0--0--0--
?FIG.1
E-- -- -- -- -- -- -- -- -- -- -- -- --
B-- -- -- -- -- -- -- -- -- -- -- -- --
G-- -- -- -- -- -- -- -- -- -- -- -- -- x12
D-- -- -- -- -- -- -- 3--4-- -- -- -- --
A--0--3--5--X--X-- -- --5--0--3---3
D--0-- -- -- X--X-- -- -- -- 0--2H3--2
FIG.2
E-- -- -- -- -- -- -- -- -- -- -- -- -- -- -- -- -- --
B-- -- -- -- -- -- -- -- -- -- -- -- -- -- -- -- -- --
G-- -- -- -- -- -- -- -- -- -- -- -- -- -- -- -- -- --
D-- -- -- -- -- --9 -- -- --- -- --8-- -- -- -- -- --7
A--0--3--5--X--- --0--3--5--X -- --0--3--5--X --
D--0-- -- ---X--- --0-- -- - -X ----0-- -- -- -X --
?
E-- -- -- -- --
B-- -- -- -- --
G-- -- -- -- --
D-- -- -- -- --
A--2H3--2H3--0
D--2H3--2H3--0
?
PLAY FIG.1
?FIG.3
E-- -- -- --
B-- -- -- --
G--7--7.--7 X4
D--X--X.--X
A--5--5.--5
D-- -- -- --
FIG.4
play the depressed string part in 1?23?45?67..8 timing, beginning on a down stroke.
E-- -- -- -- -- -- -- -- -- -- -- -- -- -- --
B-- -- -- -- -- -- -- -- -- -- -- -- --- --- -
G--7--7.--X--7--X--X--X--X--X--X--X--X
D--X--X.--X--X -X --X --X--X--X--X--X --X x3
A--5--5.--X--5--X--X--X--X--X--X--X--X
D-- -- -- -- -- -- -- -- -- -- -- - --- -- --
then play the same but on the 8th beat slide down x4
?
E-- -- -- -- -- --
B-- -- -- -- -- --
G--7--7.--X--7/19
D--X--X.--X--X/X (rapidly strike in up and down motion)
A--5--5.--X--5/17
D-- -- -- -- -- --
?FIG.5
E-- -- --- -- -- -- -- -- - - -- -- - --
B-- -- -- -- -- -- -- - -- -- --- -- --
G-- 7--7.--X--X--7--X--7--7-- -- -- X16
D--X--X.--X--X--X--X--X--X-- -- --
A--5--5.--X--X--5--X--5--5--3--5--3
D-- --- -- -- -- -- -- -- -- ---3--5---
?
FIG.1 8 times??
?
E---
B---
G--X X8
D--X
A--X
D---
?
PLAY FIG.3
PLAY FIG.4 (SOLO THROUGHOUT FIG.4, CAN'T BE ARSED TO WRITE, IT'S 12AM)
rapid picking action throughout this and maintain picking level throughout the slides at the end
E-- -- -- -- -- -- -- -- -- -- -- --
B-- -- -- -- -- -- -- -- -- - -- - --
G--7--9--10--12--14--16--18\/18\/18
D--0--0--0---0---0---0--0\/0\/0
A--5--7--8---10--12--14--16\/16\/16
D-- -- -- -- -- -- -- -- -- --- ---
PLAY FIG.5
E--5
B--6
G--7 the strumming in the end is a mixture of palm muting and and
D--7 normal strumming, listen to the song and you'll get it
A--5
D--5
?
E--
B--
G--7
D--X fast up down strokes
A--5
D--
and finaly!!!
E-- --- --- -- --
B-- -- --- -- -- --
G-- -- -- -- --- -- --
D-- -- -- -- -- -- --
A-- -- -- --6--6--6
D--0--0--0-- -- --
well that took a f***ing long time, you won't get many of these!!
it's all right don't worry
have fun!!!! =)
Добавлено: 02.04.2012
Другие материалы по этой песне:

Страница создана 25.02.2012
http://primanota.ru/rage-against-the-machine/killing-in-the-name-chords.htm
Привет, Гость.
Предлагаем пройти революционный курс по гитаре.
Подарок от PrimaNota.Ru, забирай!